» » »

Rage Against The Machine, Good Morning Vietnam Bass tabs (ver.1)

Artists:  A B C D E F G H I J K L M N O P Q R S T U V W X Y Z # 

Good Morning Vietnam Bass tabs (ver.1)

Rage Against The Machine Tabs
 Rating:
4/5 (4 votes)
Good Morning Vietnam lessons Tabs too difficult? Try these video lessons and learn fast
                Rage Against The Machine - Good Morning Vietnam
4 String E,A,D,G
 = Bend Up
/ = Slide Up
I'm 110% About Everything


Intro & Chorus
E---2-2-0-2-2-2-0-2-2-2-0-2-5-2-0-2-2-2-0-2--7>----------
A--------------------------------------------------------
D--------------------------------------------------------
G--------------------------------------------------------

Verse 
E---------------------------5----1-1---1/3-3----------
A--5-3-5-3-5-5-3-5-----5-3----------------------------
D-------------------3---------------------------------
G-----------------------------------------------------

Bridge(Repeat this as many times as needed)
E----5-5-3-5---------3-5-5-3-5------3--------------------
A-------------5--3--------------5-3----------------------
D--------------------------------------------------------
G--------------------------------------------------------

ORDERING
Intro
Verse
Chorus
Verse
Bridge
Chorus(During Guitar Solo)
Verse (During Guitar Solo)
Verse
Bridge 
Chorus
            
Submit corrections

comments powered by Disqus
↑ Back to top | Rage Against The Machine Bass for Good Morning Vietnam. Lyrics for acoustic guitar and electric guitar. Tablatures and chords are parodies/interpretations of the original songs. You may use it for private study, scholarship, research or language learning purposes only