>
 >
Geurilla Radio 2

Geurilla Radio 2 Guitar Tabs

Rage Against The Machine - Geurilla Radio 2 chords, tabs, tablatures, lyrics

Guitar lessons | Add/correct | Request | Top 50 tabs Artists:  A B C D E F G H I J K L M N O P Q R S T U V W X Y Z 0-9

Geurilla Radio 2 Guitar Tabs – Rage Against The Machine

CD, Sheet music, Poster

Do you like Geurilla Radio 2? Share with your friends now
TabsTabs v2Tabs v3
Intro
P.M.-  -  -  -  -  -  -  -  -
----------------------0--2---------------------------------------------------
---0-2--2-2--0-2-0-2---------------------------------------------------------

next riff (chorus)
------------------0-2--------------------------------------------------------
---0-2-2--0-2-0-2------------------------------------------------------------

repeat that some times and then the quick bridge to verse is:
---2----------------1--------------------------------------------------------
-------2-2-2-2-2-2------0-0-0-0--0--2----------------------------------------

verse (with envelope filter)
---2-x-x-2-x-x-2-x-x-2-x-x-2-x-x-2-x-x-2-x-x---------------------------------
---2-x-x-2-x-x-2-x-x-2-x-x-2-x-x-2-x-x-2-x-x---------------------------------

the bridge to solo is somehow produced by rocking the expression pedal of some
effect back and forth while playing the chorus riff.

solo(this part with wah)
---------------------2-----------------------------------------------------
---4---2---4---2--2--------------------------------------------------------
---------------------0-----------------------------------------------------
---2---0---2---0--0--------------------------------------------------------

thats repeated a few times then do this

---4-----------------------------------------------------------------------
-------x/x\x/x\x/x\x/x\----------------------------------------------------
-------x/x\x/x\x/x\x/x\----------------------------------------------------

The x with the slide sign (x/)means to pickscrape the string above where the 
pickups are.

---4--2--4---2--4^-(4)-2-----------------------------------------------------
---4--2--4---2------------4--------------------------------------------------

repeat that 2 or 3 times then the solo outro is:
---9--7--4--3--(3)/---------------------------------------------------------
---9--7--4--3--(3)/---------------------------------------------------------
---9--7--4--3--(3)/---------------------------------------------------------

outro (with distortion)
---------------------------------------------x-x-x-x-x-x-x-x-----------------
---0-2--x-2/14\--0-2--x-2/14\--0-2--x-2/14\--x-x-x-x-x-x-x-x-----------------





Comments


Popular Rage Against The Machine tabs & chords
Clear The Lane 2 Bass Tabs
Fuck Tha Police Bass Tabs
Zapata's Blood 1 Bass Tabs
Killing In The Name 1 Drum Tabs
Settle For Nothing Drum Tabs
Bulls On Parade 2 Tabs
Know Your Enemy Live Tabs
Settle For Nothing 5 Tabs
Testify 3 Tabs
The Narrows Tabs


Song lyrics



↑ Back to top | Tablatures and chords are parodies/interpretations of the original songs. You may use it for private study, scholarship, research or language learning purposes only
© 2014 AZChords.com Contact us | Privacy policy | DMCA | Add/correct tabs | Request tabs | Top 50 tabs