» » »

Rage Against The Machine, Fuck The Police Tabs (ver.1)

Artists:  A B C D E F G H I J K L M N O P Q R S T U V W X Y Z # 

Fuck The Police Tabs (ver.1)

Rage Against The Machine Tabs
Rating:
0/5 (0 votes)
Fuck The Police lessons Tabs too difficult? Try these video lessons and learn fast
                Standard tuning
INTRO/CHORUS
E----------------------------------------------------------------------------------------------------------
B-----------------------15--14--13--12--11—10—9--------------------------------------------------
G----------------------------------------------------------------------------------------------------------
D--------------------------------------------------------------------------2-------------------------------
A--------------------------------------------------------------------------2---2---------------------------
E--------------------------------------------------------------------------0---4----------------------------

VERSES
                                     V THAT’S 21 NOT 2 & 1
E-------------------------/21-------------------------------------------------------------------------------------
B--------------------------------------------------------------------------------------------------------------
G---5555--55--/3/55---------------------------------------------------------------------------------------------------
D---5555--55-/3/55-------------------------------------------------------------------------------------------------
A---3333--3-3/1/33------------------------------------------------------------------------------------------------
E-----------------------------------------------------------------------------------------------------------------------
listen to the beat
            
Submit corrections

comments powered by Disqus
↑ Back to top | Rage Against The Machine Tabs for Fuck The Police. Lyrics for acoustic guitar and electric guitar. Tablatures and chords are parodies/interpretations of the original songs. You may use it for private study, scholarship, research or language learning purposes only