» » »

Freedom Tabs (ver.7)

Artists:  A B C D E F G H I J K L M N O P Q R S T U V W X Y Z # 

Freedom Tabs (ver.7)

Rage Against The Machine
Rating:
0/5 (0 votes)

Hard to play? Try these video lessons and learn fast.
                

tuning: D drop

[e] -
[b] -
[g] -
[d] -
[a] -
[d] - drop down 2 steps


key: # ghost note
     / bend up
     ~ vibrato
     



[riff a]
e||--------------------------------------------------#-#-#-#---
b||--------------------------------------------------#-#-#-#---
g||--------------------------------------------------#-#-#-#---
c||--------------------------------------------------#-#-#-#---
g||---5-------3---------5-5------5-------3---------5-#-#-#-#---
c||-----0-3-5---5-3-5-3------0-3---0-3-5---5-3-5-3---#-#-#-#---

e||---------------------------------------------------------------------------
b||---------------------------------------------------------------------------
g||--------------------------------------------------------------------------
c||------------------------------------------------5-4-3---------------------
g||---5-------3---------5-5------5-------3---------------5-4-3------------------
c||-----0-3-5---5-3-5-3------0-3---0-3-5---5-3-5-3---------------------------

e||---------------------------------------------------22--------------
b||------------------------------------------------------------------
g||------------------------------------------------------------------
c||---5---------------------------------------------------------------
g||-----------3---------5-5------5-------3---------5------------------
c||-----0-3-5---5-3-5-3------0-3---0-3-5---5-3-5-3--------------------

e||-----------------------------------------------------------------------
b||-----------------------------------------------------------------------
g||---------------------------------------------------------------------
c||---5-----------------------------------------------0---------------------
g||-----------3---------5-5------5-------3------------0--------------------
c||-----0-3-5---5-3-5-3------0-3---0-3-5---5-3-5-3--0-0-----------------


[riff b]
e||------------------------------------------------------------------------------
b||--------------------------------------------------------------------------
g||---5-#-#-#-5-5--#-#-#-#-5-#-5-5-#-#--5-#-#-#-5-5-#-#-#------5-4-5-5--------------
c||---7-#-#-#-7-7--#-#-#-#-7-#-7-7-#-#--7-#-#-#-7-7-#-#-#------5-4-5-5-------------
g||---5-#-#-#-5-5--#-#-#-#-5-#-5-5-#-#--5-#-#-#-5-5-#-#-#------3-2-3-3-------------
c||----------------------------------------------------------------------------


{listen to song for rhytem}
[riff c]
e||---------------------------------------------------
b||---------------------------------------------------
g||---------------------------------------------------
c||---5----------7----------5----------7--------------
g||---3----------5----------3----------7--------------
c||---------------------------------------------------


[solo]
e||---------------------------------------------------
b||------------------------------------------------------
g||---0-2-10----10-9----0-2-5----0-2-5-7-9-9/-7--------------
c||-------------------------------------------------------------
g||-----------------------------------------------------------------
c||---------------------------------------------------------------------

e||------------------------------------------------------------------------------------------------------
b||------------------------------------------------------------------------------------------------------
g||---0-2-10----10-12-13-14-13-12-10-9------17-18-17-13----17-18-17-13----17-18-20-22-20-18-20-18-15-15--
c||------------------------------------------------------------------------------------------------------
g||------------------------------------------------------------------------------------------------------
c||------------------------------------------------------------------------------------------------------

[riff d]
e||---------------------------------------------------------------
b||---------------------------------------------------------------
g||---------------------------------------------------------------
c||---0-0------------------5-3-5-3-5------------------------------
g||---0-0-------5-3-5-3-5-------------3-2-3-2-3--5-3-5-3-5-3-#-3--
c||---0-0---------------------------------------------------------


[end riff]
e||---------------------------------------------------
b||---------------------------------------------------
g||---------------------------------------------------
c||---------------------------------------------------
g||---------------------------------------------------
c||---12--0--3--5--6--7--10--11--12-------------------

e||---------------------------------------------------
b||---------------------------------------------------
g||---------------------------------------------------
c||---12--0--3--5--6--7--10--11--12-------------------
g||---12--0--3--5--6--7--10--11--12-------------------
c||---12--0--3--5--6--7--10--11--12-------------------
            
Hard to play? Try these video lessons and learn fast. | Correct




comments powered by Disqus
↑ Back to top | Tablatures and chords are parodies/interpretations of the original songs. You may use it for private study, scholarship, research or language learning purposes only