» » »

Rage Against The Machine, Fistful Of Steel Tabs (ver.2)

Artists:  A B C D E F G H I J K L M N O P Q R S T U V W X Y Z # 

Fistful Of Steel Tabs (ver.2)

Rage Against The Machine Tabs
 Rating:
4/5 (4 votes)
Fistful Of Steel lessons Tabs too difficult? Try these video lessons and learn fast
1
                
Tuning: Standard

Intro:
For the intro you need to have your whammy pedal set at the Up 1 octave setting
Then you karate chop the strings near the bridge while muting with your fretting 
hand. Tom depresses the pedal slowly and releases the muting frethand for the 
higher pitched squeals.

                                                              
e|----------------------------------------------------------------|
B|--------------------0--(5)----------------------0--(19)---------|
G|--------------------0--(5)----------------------0--(19)---(19)--|
D|--------------------0--(5)----------------------0--(19)---(19)--|
A|-4---4--xx-4---4-------------4---4--xx-4---4--------------(19)--|
E|-0h2-2--xx-0h2-2-------------0h2-2--xx-0h2-2--------------------|

e|-----------------------------------------------------------|
B|-------------------0--(5)----------------------(7)---------| 
G|-------------------0--(5)----------------------(7)----(5)--|  
D|-------------------0--(5)----------------------(7)----(5)--|  
A|-4---4--xx-4---4------------4---4--xx-4---4-----------(5)--| 
E|-0h2-2--xx-0h2-2------------0h2-2--xx-0h2-2----------------|

e|----------------------------------------------------------------------|
B|--------------------(12)--(5)----------------------(12)--(19)---------|
G|--------------------(12)--(5)----------------------(12)--(19)---(19)--|
D|--------------------(12)--(5)----------------------(12)--(19)---(19)--|
A|-4---4--xx-4---4----------------4---4--xx-4---4-----------------(19)--|
E|-0h2-2--xx-0h2-2----------------0h2-2--xx-0h2-2-----------------------|

e|-----------------------------------------------------------|
B|-------------------0--(5)----------------------(7)---------| 
G|-------------------0--(5)----------------------(7)----(5)--|  
D|-------------------0--(5)----------------------(7)----(5)--|  
A|-4---4--xx-4---4------------4---4--xx-4---4-----------(5)--| 
E|-0h2-2--xx-0h2-2------------0h2-2--xx-0h2-2----------------|

e|-------------------------------------------------------------------|
B|--------------------(12)--(5)----------------------0--(19)---------|
G|--------------------(12)--(5)----------------------0--(19)---(19)--|
D|--------------------(12)--(5)----------------------0--(19)---(19)--|
A|-4---4--xx-4---4---------------4---4--xx-4---4---------------(19)--|
E|-0h2-2--xx-0h2-2---------------0h2-2--xx-0h2-2---------------------|

e|---------------------------------------------------------------|
B|-------------------(12)--(5)-----------------------(7)---------| 
G|-------------------(12)--(5)-----------------------(7)----(5)--|  
D|-------------------(12)--(5)-----------------------(7)----(5)--|  
A|-4---4--xx-4---4--------------4---4--xx-4---4-------------(5)--| 
E|-0h2-2--xx-0h2-2--------------0h2-2--xx-0h2-2------------------|

(0:53)
e|------------------------------------|
B|--(12)~~~---------------------------|
G|--(12)~~~--- Dive ------------------|
D|--(12)~~~--- w/Bar -----------------|
A|--(12)~~~---------------------------|
E|------------------------------------|

(1:05)
(w/ whammy up 1 octave)
e|-----------------------------------------|
B|---9~~~~~~~~~----------------------------| x8
G|-\/--------------------------------------|
D|-----------------------------------------|
A|--  Bring bar up as you strike note   ---|
E|-- then slowly roll back whammy pedal ---|

(1:43)
e|----------------------------------------------------------------|
B|--------------------0--(5)----------------------0--(19)---------|
G|--------------------0--(5)----------------------0--(19)---(19)--|
D|--------------------0--(5)----------------------0--(19)---(19)--|
A|-4---4--xx-4---4-------------4---4--xx-4---4--------------(19)--|
E|-0h2-2--xx-0h2-2-------------0h2-2--xx-0h2-2--------------------|

e|-----------------------------------------------------------|
B|-------------------0--(5)----------------------(7)---------| 
G|-------------------0--(5)----------------------(7)----(5)--|  
D|-------------------0--(5)----------------------(7)----(5)--|  
A|-4---4--xx-4---4------------4---4--xx-4---4-----------(5)--| 
E|-0h2-2--xx-0h2-2------------0h2-2--xx-0h2-2----------------|

e|----------------------------------------------------------------------|
B|--------------------(12)--(5)----------------------(12)--(19)---------|
G|--------------------(12)--(5)----------------------(12)--(19)---(19)--|
D|--------------------(12)--(5)----------------------(12)--(19)---(19)--|
A|-4---4--xx-4---4----------------4---4--xx-4---4-----------------(19)--|
E|-0h2-2--xx-0h2-2----------------0h2-2--xx-0h2-2-----------------------|

e|-----------------------------------------------------------|
B|-------------------0--(5)----------------------(7)---------| 
G|-------------------0--(5)----------------------(7)----(5)--|  
D|-------------------0--(5)----------------------(7)----(5)--|  
A|-4---4--xx-4---4------------4---4--xx-4---4-----------(5)--| 
E|-0h2-2--xx-0h2-2------------0h2-2--xx-0h2-2----------------|

e|-------------------------------------------------------------------|
B|--------------------(12)--(5)----------------------0--(19)---------|
G|--------------------(12)--(5)----------------------0--(19)---(19)--|
D|--------------------(12)--(5)----------------------0--(19)---(19)--|
A|-4---4--xx-4---4---------------4---4--xx-4---4---------------(19)--|
E|-0h2-2--xx-0h2-2---------------0h2-2--xx-0h2-2---------------------|

e|---------------------------------------------------------------|
B|-------------------(12)--(5)-----------------------(7)---------| 
G|-------------------(12)--(5)-----------------------(7)----(5)--|  
D|-------------------(12)--(5)-----------------------(7)----(5)--|  
A|-4---4--xx-4---4--------------4---4--xx-4---4-------------(5)--| 
E|-0h2-2--xx-0h2-2--------------0h2-2--xx-0h2-2------------------|

(2:08)
e|------------------------------------|
B|--(12)~~~---------------------------|
G|--(12)~~~--- Dive ------------------|
D|--(12)~~~--- w/Bar -----------------|
A|--(12)~~~---------------------------|
E|------------------------------------|

(2:20)
(w/ whammy up 1 octave)
e|-----------------------------------------|
B|---9~~~~~~~~~----------------------------| x8
G|-\/--------------------------------------|
D|-----------------------------------------|
A|--  Bring bar up as you strike note   ---|
E|-- then slowly roll back whammy pedal ---|

(2:57)
e|----------------------------------------------------------------|
B|--------------------0--(5)----------------------0--(19)---------|
G|--------------------0--(5)----------------------0--(19)---(19)--|
D|--------------------0--(5)----------------------0--(19)---(19)--|
A|-4---4--xx-4---4-------------4---4--xx-4---4--------------(19)--|
E|-0h2-2--xx-0h2-2-------------0h2-2--xx-0h2-2--------------------|

e|-----------------------------------------------------------|
B|-------------------0--(5)----------------------(7)---------| 
G|-------------------0--(5)----------------------(7)----(5)--|  
D|-------------------0--(5)----------------------(7)----(5)--|  
A|-4---4--xx-4---4------------4---4--xx-4---4-----------(5)--| 
E|-0h2-2--xx-0h2-2------------0h2-2--xx-0h2-2----------------|

e|----------------------------------------------------------------------|
B|--------------------(12)--(5)----------------------(12)--(19)---------|
G|--------------------(12)--(5)----------------------(12)--(19)---(19)--|
D|--------------------(12)--(5)----------------------(12)--(19)---(19)--|
A|-4---4--xx-4---4----------------4---4--xx-4---4-----------------(19)--|
E|-0h2-2--xx-0h2-2----------------0h2-2--xx-0h2-2-----------------------|

e|---------------------------------------------|
B|-------------------0--(5)--------------------| 
G|-------------------0--(5)--------------------|  
D|-------------------0--(5)--------------------|  
A|-4---4--xx-4---4------------4---4--xx-4---4--| 
E|-0h2-2--xx-0h2-2------------0h2-2--xx-0h2-2--|

(3:20)
Guitar solo
For this solo Tom is just toggle switching while running a slide up above
the pickups. He starts by sliding up from about the 15th fret. Its really
hard to explain this, he basically is just sliding up to about 3" from his
Bridge. Then Toggling on that one note. Listen to the CD and try to get
the main idea. Just get the main rythym down. Its improved live anyways.

(3:45)
e|-----------------------------------| x4
B|-----------------------------------| 
G|-----------------------------------| All Palm Muted
D|-----------------------------------| Slowly Release 
A|--9-8-7-0-9-8-7-0-9-8-7-0-9-8-7-0--| on last bar
E|-----------------------------------|

e|-------------------------------|
B|-------------------------------| x3
G|-------------------------------|
D|-2---4---7---------------------|
A|-2---4---7----9-8-7-0-9-8-7-0--|
E|-0---2---5---------------------|

e|------------------------------------------|
B|------------------------------------------| 
G|------------------------------------------|
D|-2---4---7----------------------2---4---7-|
A|-2---4---7----9-8-7-0-9-8-7-0---2---4---7-|
E|-0---2---5----------------------0---2---5-|

e|-----------------------------------| x8
B|-----------------------------------| 
G|-----------------------------------| All Palm Muted
D|-----------------------------------| Slowly Release 
A|--9-8-7-0-9-8-7-0-9-8-7-0-9-8-7-0--| on last 2 bars
E|-----------------------------------|

e|-------------------------------|
B|-------------------------------| x4
G|-------------------------------| x8(under solo)
D|-2---4---7---------------------|
A|-2---4---7----9-8-7-0-9-8-7-0--|
E|-0---2---5---------------------|

Outro Solo: 
This is very rough, This solo sounds very raw and unrehearsed to me.
Don't bother trying to learn it note for note, just pick fast and 
play whatever comes to you.

e|--17-17-17-------18-18-18------------------17-17-17-17-----------------------17-17---------------------|
B|--------------------------------17------------------------------17-17-17-----------17-------17-----17--|
G|-----------14-14----------14-14------14-14-------------14-14-14----------14-----------14-14-----14-----|
D|-------------------------------------------------------------------------------------------------------|
A|-------------------------------------------------------------------------------------------------------|
E|-------------------------------------------------------------------------------------------------------|

e|-------17-17-17-17----------------------------------17-17-----------17-17----------17---------------------|
B|-17----------------------17b19-(17)-(17)------17--------------17-------------17----------17-17-14--17b19--|
G|----14-------------14-14-----------------0-14----14-------14-----14-------14----14----14------------------|
D|----------------------------------------------------------------------------------------------------------|
A|----------------------------------------------------------------------------------------------------------|
E|----------------------------------------------------------------------------------------------------------|

e|--16-19-17-16----------19-17-16----------21-19-17----------19-17-16------------|
B|--------------19-17-16----------19-17-16----------21-19-17----------19-17-16---|
G|-------------------------------------------------------------------------------|
D|-------------------------------------------------------------------------------|
A|-------------------------------------------------------------------------------|
E|-------------------------------------------------------------------------------|


e|-19-17-16----------21-19-17----------19-17-16----------21-19-17-------------21b~-|
B|----------19-17-16----------21-19-17----------19-17-16----------21-19-17---------|
G|---------------------------------------------------------------------------------|
D|---------------------------------------------------------------------------------|
A|---------------------------------------------------------------------------------|
E|---------------------------------------------------------------------------------|

e|-------------------------------------------22b24~~----|
B|-17-16-14---------------------------------x-----------|
G|----------17-16-14--/14-/15-/16-/17-/19---------------|
D|------------------------------------------------------|
A|------------------------------------------------------|
E|------------------------------------------------------|

e|-------------------------------|
B|-------------------------------| 
G|-------------------------------|
D|---------------------2---4---7-|
A|---9-8-7-0-9-8-7-0---2---4---7-|
E|---------------------0---2---5-|

e|-----------------------------------|
B|-----------------------------------| 
G|--------------------------3~-------|
D|--------------------2--4---------2-|
A|---9-8-7-0-9-8-7-0--2--4---------2-|
E|--------------------0--2---------0-|
            
Submit corrections

comments powered by Disqus
↑ Back to top | Rage Against The Machine Tabs for Fistful Of Steel. Lyrics for acoustic guitar and electric guitar. 1 Tablatures and chords are parodies/interpretations of the original songs. You may use it for private study, scholarship, research or language learning purposes only