>
 >
Down Rodeo 2

Down Rodeo 2 Bass Tabs

Rage Against The Machine - Down Rodeo 2 chords, tabs, tablatures, lyrics

Guitar lessons | Add/correct | Request | Top 50 tabs Artists:  A B C D E F G H I J K L M N O P Q R S T U V W X Y Z 0-9

Down Rodeo 2 Bass Tabs – Rage Against The Machine

CD, Sheet music, Poster

Do you like Down Rodeo 2? Share with your friends now
Bass TabsBass Tabs v2Bass Tabs v3ChordsTabsTabs v2Tabs v3Tabs v4Ukulele

DOWN RODEO (Bassline)
As recorded by Rage Against the Machine
(From the 1996 Album EVIL EMPIRE)

	

Words by Zack de la Rocha Music by Rage Against the Machine

Gtr I (E A D G) - 'Bass'
Gtr II (E A D G) - 'Bass Double'

  Q=86
  Gtrs I, II
  S S S S S S S S S S S S S S S S   S S S S S S S S S S S S S S S S
|---------------------------------|---------------------------------|
|---------------------------------|---------------------------------|
|---------------------------------|---------------------------------|
|-9-9-9-9-9-9-9-9-9-9-9-9-9-9-9-9-|-9-9-9-9-9-9-9-9-9-9-9-9-9-9-9-9-|


  S S S S S S S S S S S S S S S S    S  S  S  S  S  S  S  S  S  S  E S E.
|---------------------------------|---------------------------------------|
|---------------------------------|---------------------------------------|
|---------------------------------|---------------------------------------|
|-9-9-9-9-9-9-9-9-9-9-9-9-9-9-9-9-|-12-12-12-12-12-12-12-12-12-12-12Sx-0--|


    S S Q  S S S S S S S S E
||---------------------------|
||o--------------------------|
||o--------------------------|
||--0-2----2-0-0-2-0-2-3-2-0-|


  S S S S E E S S E E S S  3x S S Q  S S S S S S S S E
|--------------------------||--------------------------|
|-------------------------o||--------------------------|
|-------------------------o||--------------------------|
|-0-2-x-x-x-x-x-x-x-x-x-x--||-0-2----2-0-0-2-0-2-3-2-0-|


    E E E S S E E E S S   E E E S S E E E S S
||----------------------|---------------------|
||o---------------------|---------------------|
||o---------------------|---------------------|
||--0-2-x-x-x-0-2-x-x-x-|-0-2-x-x-x-0-2-x-x-x-|


  E E E S S E E E S S   E E E S S E E E S S
|---------------------|----------------------||
|---------------------|---------------------o||
|---------------------|---------------------o||
|-0-2-x-x-x-0-2-x-x-x-|-0-2-x-x-x-0-2-x-x-x--||


                      2/4
                Gtr I
  E E E S S E E  Q     +S   S  S  S  S  S  S  S
|---------------(0)--|-(0)S12-12-12-12-12-12-12-|
|--------------------|--------------------------|
|--------------------|--------------------------|
|-0-2-x-x-x-0-2------|--------------------------|


   4/4
    E E Q  S  S  S  S  S  S  S  S   E E E E S  S  S  S  S  S  S  S
||---------3S12-12-12-12-12-12-12-|-----------12-12-12-12-12-12-12-|
||o-------------------------------|--------------------------------|
||o-------------------------------|--------------------------------|
||--0-2---------------------------|---0---2------------------------|


  E E Q  S  S  S  S  S  S  S  S   E E Q  S  S  S  S  S  S  S  S   4x
|----------12-12-12-12-12-12-12-|----------12-12-12-12-12-12-12---||
|-------------------------------|--------------------------------o||
|-------------------------------|--------------------------------o||
|-0-2---------------------------|---2-----------------------------||


  Gtrs I, II
  E E E E E E E E   E E E E E E S E.
|-----------------|------------------|
|-----------------|------------------|
|-----------------|------------------|
|-3-3-3-3-3-3-3-3-|-3-3-3-3-3-3-x-0--|


    S S Q  S S S S S S S S E
||---------------------------|
||o--------------------------|
||o--------------------------|
||--0-2----2-0-0-2-0-2-3-2-0-|


  S S S S E E S S E E S S  3x S S Q  S S S S S S S S E
|--------------------------||--------------------------|
|-------------------------o||--------------------------|
|-------------------------o||--------------------------|
|-0-2-x-x-x-x-x-x-x-x-x-x--||-0-2----2-0-0-2-0-2-3-2-0-|


    E E E S S E E E S S   E E E S S E E E S S
||----------------------|---------------------|
||o---------------------|---------------------|
||o---------------------|---------------------|
||--0-2-x-x-x-0-2-x-x-x-|-0-2-x-x-x-0-2-x-x-x-|


  E E E S S E E E S S   E E E S S E E E S S
|---------------------|----------------------||
|---------------------|---------------------o||
|---------------------|---------------------o||
|-0-2-x-x-x-0-2-x-x-x-|-0-2-x-x-x-0-2-x-x-x--||


                      2/4
                Gtr I
  E E E S S E E  Q     +S   S  S  S  S  S  S  S
|---------------(0)--|-(0)S12-12-12-12-12-12-12-|
|--------------------|--------------------------|
|--------------------|--------------------------|
|-0-2-x-x-x-0-2------|--------------------------|


 4/4
  Gtrs I, II
  E E Q  S  S  S  S  S  S  S  S   E E E E S  S  S  S  S  S  S  S
|--------3S12-12-12-12-12-12-12-|-----------12-12-12-12-12-12-12-|
|-------------------------------|--------------------------------|
|-------------------------------|--------------------------------|
|-0-2---------------------------|---0---2------------------------|


  E E Q  S  S  S  S  S  S  S  S   E E Q  S  S  S  S  S  S  S  S
|----------12-12-12-12-12-12-12-|----------12-12-12-12-12-12-12---|
|-------------------------------|---------------------------------|
|-------------------------------|---------------------------------|
|-0-2---------------------------|---2-----------------------------|


  E E Q  S  S  S  S  S  S  S  S   E E E E S  S  S  S  S  S  S  S
|--------3S12-12-12-12-12-12-12-|-----------12-12-12-12-12-12-12-|
|-------------------------------|--------------------------------|
|-------------------------------|--------------------------------|
|-0-2---------------------------|---0---2------------------------|


  E E Q  S  S  S  S  S  S  S  S   E E Q   S S S  S S S  S S
|----------12-12-12-12-12-12-12-|--------12-9-0-12-9-0-12-9----|
|-------------------------------|------------------------------|
|-------------------------------|------------------------------|
|-0-2---------------------------|---2--------------------------|


    Gtr I
    E E Q  S  S  S  S  S  S  S  S   E E E E S  S  S  S  S  S  S  S
||---------3S12-12-12-12-12-12-12-|-----------12-12-12-12-12-12-12-|
||o-------------------------------|--------------------------------|
||o-------------------------------|--------------------------------|
||--0-2---------------------------|---0---2------------------------|


  E E Q  S  S  S  S  S  S  S  S   E E Q  S  S  S  S  S  S  S  S
|----------12-12-12-12-12-12-12-|----------12-12-12-12-12-12-12-----||
|-------------------------------|----------------------------------o||
|-------------------------------|----------------------------------o||
|-0-2---------------------------|---2-------------------------------||


  Gtrs I, II
  E E E E E E E E   E E E E E E S E.
|-----------------|------------------|
|-----------------|------------------|
|-----------------|------------------|
|-3-3-3-3-3-3-3-3-|-3-3-3-3-3-3-x-0--|


    S S Q  S S S S S S S S E
||---------------------------|
||o--------------------------|
||o--------------------------|
||--0-2----2-0-0-2-0-2-3-2-0-|


  S S S S E E S S E E S S  3x S S Q  S S S S S S S S E
|--------------------------||--------------------------|
|-------------------------o||--------------------------|
|-------------------------o||--------------------------|
|-0-2-x-x-x-x-x-x-x-x-x-x--||-0-2----2-0-0-2-0-2-3-2-0-|


    E E E S S E E E S S   E E E S S E E E S S
||----------------------|---------------------|
||o---------------------|---------------------|
||o---------------------|---------------------|
||--0-2-x-x-x-0-2-x-x-x-|-0-2-x-x-x-0-2-x-x-x-|


  E E E S S E E E S S   E E E S S E E E S S
|---------------------|----------------------||
|---------------------|---------------------o||
|---------------------|---------------------o||
|-0-2-x-x-x-0-2-x-x-x-|-0-2-x-x-x-0-2-x-x-x--||


                Q=83
                     Gtr I
  E E E S S E E Q    S S S S S S S S S S S S S S S S
|------------------|---------------------------------|
|------------------|-0-0-0-0-0-0-0-0-0-0-0-0-0-0-0-0-|
|------------------|---------------------------------|
|-0-2-x-x-x-0-2----|---------------------------------|


  S S S S S S S S S S S S S S S S
|----------------------------------|
|-0-0-0-0-0-0-0-0-0-0-0-0-0-0-0-0--|
|----------------------------------|
|----------------------------------|


                  Gtrs I, II
  S S S S S S S S S S S S S S S S     E E E E E E E E
|---------------------------------||------------------|
|-0-0-0-0---0-3-3-3-3-3-3-3-3-3-3-||o-----------------|
|---------3-----------------------||o-----------------|
|---------------------------------||--0-0-0-0-0-0-0-0-|


  S S S S S S S S S S S S S S S S    7x
|------------------------------------||
|-0-0-0-0---0-3-3-3-3-3-3-3-3-3-3---o||
|---------3-------------------------o||
|------------------------------------||


    W          Q.   H    +E    W          Q.   H    +E      W          +W
||-----------|---------------|----------|----------------||----------|--------*|
||o----------|---------------|----------|---------------o||----------|--------*|
||o----------|-5----3----(3)-|----------|-5----3----(3)-o||----------|--------*|
||--0--------|---------------|-0--------|----------------||-0--------|-(0)----*|



Duration Legend
---------------
W - whole; H - half; Q - quarter; E - 8th; S - 16th; T - 32nd; X - 64th; a - acciaccatura
+ - note tied to previous; . - note dotted; .. - note double dotted
Uncapitalized letters represent notes that are staccato (1/2 duration)
Irregular groupings are notated above the duration line
Duration letters will always appear directly above the note/fret number it represents the
duration for.  Duration letters with no fret number below them represent rests.  Multi-
bar rests are notated in the form Wxn, where n is the number of bars to rest for.  Low
melody durations appear below the staff

Tablature Legend
----------------
 h   - hammer-on
 p   - pull-off
 b   - bend
 pb  - pre-bend
 r   - bend release (if no number after the r, then release immediately)
 /\  - slide into or out of (from/to "nowhere")
 s   - legato slide
 S   - shift slide
 - natural harmonic
[n]  - artificial harmonic
n(n) - tapped harmonic
 ~   - vibrato
 tr  - trill
 T   - tap
 TP  - trem. picking
 PM  - palm muting
\n/  - tremolo bar dip; n = amount to dip
 \n  - tremolo bar down
 n/  - tremolo bar up
/n\  - tremolo bar inverted dip
 =   - hold bend; also acts as connecting device for hammers/pulls
 <> - volume swell (louder/softer)
 x   - on rhythm slash represents muted slash
 o   - on rhythm slash represents single note slash

Misc Legend
-----------
 |  - bar
||  - double bar
||o - repeat start
o|| - repeat end
*|  - double bar (ending)
 :  - bar (freetime)
 $  - Segno
 &  - Coda
Tempo markers -  = BPM(8/16=s8/s16), where s8 = swing 8ths, s16 = swing 16ths





Comments


Popular Rage Against The Machine tabs & chords
Fuck Tha Police Bass Tabs
Kick Out The Jams 2 Bass Tabs
Renegades Of Funk 2 Bass Tabs
Township Rebellion Bass Tabs
Born Of A Broken Man 3 Tabs
Demo Tabs
Guerrilla Radio 1 Tabs
In My Eyes 2 Tabs
Know Your Enemy 4 Tabs
The Ghost Of Tom Joad 1 Tabs


Song lyrics



↑ Back to top | Tablatures and chords are parodies/interpretations of the original songs. You may use it for private study, scholarship, research or language learning purposes only
© 2014 AZChords.com Contact us | Privacy policy | DMCA | Add/correct tabs | Request tabs | Top 50 tabs