» » »

Rage Against The Machine, Down On The Street Tabs (ver.2)

Artists:  A B C D E F G H I J K L M N O P Q R S T U V W X Y Z # 

Down On The Street Tabs (ver.2)

Rage Against The Machine Tabs
Rating:
0/5 (0 votes)
Down On The Street lessons Tabs too difficult? Try these video lessons and learn fast
                mike strobel
down on the street
rage against the machine
drop d

intro/verse
e------------------------------------------------------------
b------------------------------------------------------------
g----------------------2b-0----------------------------------
d--7--xxxx-2-2-0-2-xxx-------2---xxxx-2-2-0-2-xxx-5-7-5-2----
a--7--xxxx-2-2-0-2-xxx-----------xxxx-2-2-0-2-xxx-5-7-5-2----
d--7--xxxx-2-2-0-2-xxx-----------xxxx-2-2-0-2-xxx-5-7-5-2----

chorus,3x then play next riff
e--------------------
b--------------------
g--9--9-7--14-14-12--
d--9--9-7--14-14-12--  
a--7--7-5--12-12-10--
d--------------------

next riff
e-------------------------	
b-------------------------	
g--14--14-12-12-14-14-12--
D--14--14-12-12-14-14-12-- 
A--12--12-10-10-12-12-10-- 
D-------------------------		

solo w/ wah play twice
e--------------------------------------------------
b--------------------------------------------------
g--------------------------------------------------
d----2---2---2---2---2---2---2---2---5-------------
a--------------------------------------------------
d--2---2---2---2---2---2---2---2-------------------

then
e-----------------------------------------------------------
a--8-8-xxxxxx--8-8-xxxxxx--8-8-xxxxxx---8-10-8-10-8-10-8-10-
g--7-7-xxxxxx--7-7-xxxxxx--7-7-xxxxxx-----------------------
d--6-6-xxxxxx--6-6-xxxxxx--6-6-xxxxxx-----------------------
a--7-7-xxxxxx--7-7-xxxxxx--7-7-xxxxxx-----------------------
d-----------------------------------------------------------
            

comments powered by Disqus
↑ Back to top | Rage Against The Machine Tabs for Down On The Street. Lyrics for acoustic guitar and electric guitar. Tablatures and chords are parodies/interpretations of the original songs. You may use it for private study, scholarship, research or language learning purposes only