» » »

Rage Against The Machine, Degeneration X Bass tabs (ver.2)

Artists:  A B C D E F G H I J K L M N O P Q R S T U V W X Y Z # 

Degeneration X Bass tabs (ver.2)

Rage Against The Machine Tabs
 Rating:
4/5 (4 votes)
Degeneration X lessons Tabs too difficult? Try these video lessons and learn fast
                

intro:
      g---------------------------------------------
      d---------------------------------------------
      a--------3-----3-5555-------3------22-33-22----
      e-0-0-0--0-0----------0-0-0---0-0------------

chorus:
      
      g-----------------------------------
      d-----------------------------------
      a---7-6-7-2-3----------7-6-7-2-3------
      e-0-------------2-3-0----------------2-3-0

bridge:

      g---------------
      d---------------
      a---------------
      e-0-0----0-0----
            
Submit corrections

comments powered by Disqus
↑ Back to top | Rage Against The Machine Bass for Degeneration X. Lyrics for acoustic guitar and electric guitar. Tablatures and chords are parodies/interpretations of the original songs. You may use it for private study, scholarship, research or language learning purposes only