» » »

Degeneration X Bass tabs (ver.1)

Artists:  A B C D E F G H I J K L M N O P Q R S T U V W X Y Z # 

Degeneration X Bass tabs (ver.1)

Rage Against The Machine
Rating:
0/5 (0 votes)

Hard to play? Try these video lessons and learn fast.
                Rage Against The Machine
D-Generation-X

This is the enterance music for the old DX.'m sure Rage Against The Machine wrote it but I don't think they performed it.

Verse
G-------------------------
D-------------------------
A-----7-5-----5-5-7-7-7-7-
E-0-0----0--0-------------

G--------------------------
D--------------------------
A-----7-5------------------
E-0-0-----0--0-7-7-8-8-7-7-

Chorus
G---------------------
D---------------------
A----7-5-7------------
E-0---------7--8--3-5-

G-------------------
D-------------------
A----7-5-7----------
E-0---------8--7--3-

After Chorus
G------
D------
A------
E-7--7- X4

I don't know how many times to play each part but just repeat the song through a few times.
            
Hard to play? Try these video lessons and learn fast. | Correct




comments powered by Disqus
↑ Back to top | Tablatures and chords are parodies/interpretations of the original songs. You may use it for private study, scholarship, research or language learning purposes only