>
 >
Clear The Lane 4

Clear The Lane 4 Bass Tabs

Rage Against The Machine - Clear The Lane 4 chords, tabs, tablatures, lyrics

Guitar lessons | Add/correct | Request | Top 50 tabs Artists:  A B C D E F G H I J K L M N O P Q R S T U V W X Y Z 0-9

Clear The Lane 4 Bass Tabs – Rage Against The Machine

CD, Sheet music, Poster

Do you like Clear The Lane 4? Share with your friends now
Bass TabsBass Tabs v2Bass Tabs v3Bass Tabs v4Bass Tabs v5Bass Tabs v6Tabs
This song has a sick bass line, very old song.  Probably Timmy C's best, well here it is...

One of Rage's few that's not Drop-D, he he ... Standard Tuning.

Verse/Main:
G:---------------:
D:-9-------------:
A:---8-----------:
E:------7-8--5-7-:

Chorus:
G:--------------------------------------------------------------------:
D:--------------------------------------------------------------------:
A:-----5---5-------------------------5---5-------------5h7-77--7h8-88-:
E:-7-7-------5-5-7-7---7-6-------7-7-------5-5-7-7---7----------------:

Breakdown:
G:----------------------------------------------------------------:
D:---0--------------0--0h2h3p2------0-------------0--0232-0h2h3p2-:
A:-2-------0-----2----------------2-------0-----2-----------------:
E:-----2-2---2------------------------2-2---2---------------------:





Comments


Popular Rage Against The Machine tabs & chords
Bulls On Parade 9 Bass Tabs
Darkness Of Greed Bass Tabs
Fuck Tha Police Bass Tabs
Hadda Be Playin On The Jukebox 4 Bass Tabs
It Had To Be Playin On The Jukebox Bass Tabs
J F K Bass Tabs
Jfk Bass Tabs
Township Rebellion 3 Bass Tabs
Ghost Of Tom Joad Intro Tabs
Sleep Now In The Fire 6 String Tabs


Song lyrics



↑ Back to top | Tablatures and chords are parodies/interpretations of the original songs. You may use it for private study, scholarship, research or language learning purposes only
© 2014 AZChords.com Contact us | Privacy policy | DMCA | Add/correct tabs | Request tabs | Top 50 tabs