» » »

Rage Against The Machine, Clear The Lane Bass tabs (ver.2)

Artists:  A B C D E F G H I J K L M N O P Q R S T U V W X Y Z # 

Clear The Lane Bass tabs (ver.2)

Rage Against The Machine Tabs
 Rating:
4/5 (4 votes)
Clear The Lane lessons Tabs too difficult? Try these video lessons and learn fast
1
                Rage Against The Machine
Clear The Lane
Live & Rare


I think this is pretty much right.  Enjoy

Intro to verse, play once

G----------------
D-9--------------
A---8------------
E-----7--8--5--7-

Verse

G----------------
D----------------
A---8------------
E-7---7--8--5--7-

Verse End (only at end of verse during guitar solo and after bridge)

G----
D----
A----
E-7\-

Chorus
                   1     2
G-----------------|-----|-------------
D-----------------|-----|-------------
A-----5--5--------|-----|-5h7-7h8-888-
E-7-7-----5-5-7-7-|-7-6-|-------------

Bridge (Order - 1, 2, 1, 1) 
 1                            2
G----------------------------|--------------------------------
D----------------------------|--------------------------------
A---5-------------5--x-7h8p7-|---5-------------5---57-x-7h8p7-
E-7----2-2-5-2--7------------|-7----2-2-5-2--7---07-----------

After the solo the verse riff timing changes slightly every 
other time it is played, listen to it and you'll understand 
what I mean.  I'm not definite about the end of the bridge, 
you can also play a mute instead of the open E but it's pretty 
it worked out.  Cheers, enjoy the tab.
            
Submit corrections

comments powered by Disqus
↑ Back to top | Rage Against The Machine Bass for Clear The Lane. Lyrics for acoustic guitar and electric guitar. 1 Tablatures and chords are parodies/interpretations of the original songs. You may use it for private study, scholarship, research or language learning purposes only