» » »

Bulls On Parade Bass tabs (ver.4)

Artists:  A B C D E F G H I J K L M N O P Q R S T U V W X Y Z # 

Bulls On Parade Bass tabs (ver.4)

Rage Against The Machine
Rating:
0/5 (0 votes)

Tabs too difficult? Try these video lessons and learn fast.
                Bulls on Parade
Rage Against The Machine from the EVIL EMPIRE album

Tuned 1/2 step below standard tuning.  (Eb,Ab,Db,Gb)

            Riff 1.                    (x8)
Gb:--------|--------------------------------|--------|
Db:--Drum--|*--4-------4--4-------4--4-----*|--Rest--|
Ab:--Fill--|*------------------------------*|--------|
Eb:--------|------2----------2----------2---|--------|


    Riff 2.                      (x3)
Gb:-----------------------------------|----------------------------|
Db:*---------------------------------*|----------------------------|
Ab:*---------------------------------*|----------------------------|
Eb:---2--2--X-X--2--2--X-X-X-X-X--0---|--2--2--X-X--2--2--0--2--0--|


   Riff 3.                                 (x4)
Gb:---------------------------------------------|
Db:*-------------------------------------------*|
Ab:*--------0----2--0--------------------------*|
Eb:---0--2-------------0--2----2--0---0--0--1---|


   Riff 4.                                              (x4)
Gb:----------------------------------------------------------|---------------|
Db:*--5-4-------------------------5-4-----------------------*|--Riff-3-(x4)--|
Ab:*--------------------------------------------------------*|---------------|
Eb:--------2-r--2---0-2-2----2---------2-r--2--2-2-2-2-0-2---|---------------|


                   Bass Solo
Gb:---------------|---------------------------------------|
Db:--Riff-4-(x4)--|---------------------9--7--9-----7-----|
Ab:---------------|--2--2---(2)-2--7/9-----------9-----0--|
Eb:---------------|---------------------------------------|


Gb:--------------------------------------|
Db:-----------------9p7------------------|
Ab:--2--2----2--2/-------9--7p5-----7----|
Eb:------------------------------7-----0-|


Gb:--------------------------------------|
Db:--------------------------------------|
Ab:--2--2----2--2--7h9--9--7h9--9--9--9--|
Eb:--------------------------------------|


Gb:----------------14--16--16--16------------------|---------------|
Db:------------------------------------------------|--Riff-3-(x4)--|
Ab:--2--2---2--2/------------------12--14--14--14--|---------------|
Eb:------------------------------------------------|---------------|


  *Distortion On
Gb:---------------|-----------------------------|---------------|
Db:--Riff-2-(x3)--|--------------4-4------------|--Riff-2-(x4)--|
Ab:---------------|-----------------------------|---------------|
Eb:---------------|--2--2--X-2-2------0--2--0---|---------------|

                  
Gb:---------------|
Db:--Riff-1-(x8)--|
Ab:---------------|
Eb:---------------|
/----------------------------------------\ 
|  ____    ____                          |
| (    `--'  .-'               _T_T_T_T_ |
| |8| O  O  |||||||||||||||||||[o o o o/ | 
| (__,--.____\                 `~~~`--'  |
|     from the desk of jaco pastorius..  |
\----------------------------------------/
            
Tabs too difficult? Try these video lessons and learn fast.




comments powered by Disqus
↑ Back to top | Tablatures and chords are parodies/interpretations of the original songs. You may use it for private study, scholarship, research or language learning purposes only