>
 >
Bulls On Parade 9

Bulls On Parade 9 Bass Tabs

Rage Against The Machine - Bulls On Parade 9 chords, tabs, tablatures, lyrics

Guitar lessons | Add/correct | Request | Top 50 tabs Artists:  A B C D E F G H I J K L M N O P Q R S T U V W X Y Z 0-9

Bulls On Parade 9 Bass Tabs – Rage Against The Machine

CD, Sheet music, Poster

Do you like Bulls On Parade 9? Share with your friends now
Bass TabsBass Tabs v2Bass Tabs v3Bass Tabs v4Bass Tabs v5Bass Tabs v6Bass Tabs v7Bass Tabs v8Bass Tabs v9ChordsDrum TabsDrum Tabs v2TabsTabs v2Tabs v3Tabs v4Tabs v5Tabs v6Ukulele
I've seen this song live, so I know the tab is perfect.
I was also in a Rage cover band called Unbridled Anger in Conflict with the Dictated 

0:00-0:26 (play 8x)
G|-6----6-1----4-----------------------------------------------------------|
D|-------------------------------------------------------------------------|
A|-------------------------------------------------------------------------|
D|---1------6----7-6-------------------------------------------------------|

0:38-0:48
G|-------------------------------------------------------------------------|
D|-------------------------------------------------------------------------|
A|---------------------------1-1---1--1------------------------------------|
D|-00-0-0---33-0-0---00-0-0------------------------------------------------|

0:48-1:11 (play 4x)
G|-------------------------------------------------------------------------|
D|-------------------------------------------------------------------------|
A|--------1----------------------------------------------------------------|
D|-1-2-3-4-3-2-1-3p2-1-----------------------------------------------------|

1:11-1:34 (play 4x)
G|-------------------------------------------------------------------------|
D|-------------------------------------------------------------------------|
A|-4-------2-------4--------0-0-0--3-2-1-----------------------------------|
D|---4p3-4---3p2-2---4p3-4-------------------------------------------------|

1:34-1:57 (play 4x)
G|-------------------------------------------------------------------------|
D|-------------------------------------------------------------------------|
A|--------1----------------------------------------------------------------|
D|-1-2-3-4-3-2-1-3p2-1-----------------------------------------------------|

1:57-2:21 (play 4x)
G|-------------------------------------------------------------------------|
D|-------------------------------------------------------------------------|
A|-4-------2-------4--------0-0-0--3-2-1-----------------------------------|
D|---4p3-4---3p2-2---4p3-4-------------------------------------------------|

2:21-2:32
G|-------------------------------------------------------------------------|
D|-------------------------------------------------------------------------|
A|---------------------------1-1---1--1------------------------------------|
D|-00-0-0---33-0-0---00-0-0------------------------------------------------|

2:32-2:55-Morello's Solo (you can play the part from 1:34 or you can play this filler 
I use, it sounds cooler, and it gives the bass player some much needed street cred! feel me!)
G|-----0-0-2-2-0---------------------0-0-------------0-0-------------------|
D|------------------3-3-2-2-0-0----------3-3-2-2-0------3-3-2-2-0----------|
A|------------------------------3------------------------------------------|
D|-3-3---------------------------------------------------------------------|

3:07-3:29 (play 8x)
G|-------------------------------------------------------------------------|
D|-------------------------------------------------------------------------|
A|---------------------------1-1---1--1------------------------------------|
D|-00-0-0---33-0-0---00-0-0------------------------------------------------|

3:29-3:50 (play 8x)
G|-6----6-1----4-----------------------------------------------------------|
D|-------------------------------------------------------------------------|
A|-------------------------------------------------------------------------|
D|---1------6----7-6-------------------------------------------------------|

3:51-END
G|---9/~-------------------------------------------------------------------|
D|----7/~------------------------------------------------------------------|
A|-----8\~-----------------------------------------------------------------|
E|-------7/~---------------------------------------------------------------|





Comments


Popular Rage Against The Machine tabs & chords
Born As Ghosts  Bass Tabs
Kick Out The Jams Bass Tabs
Know Your Enemy Bass Tabs
No Shelter 4 Bass Tabs
Tire Me 2 Bass Tabs
End Of All Days Tabs
Killing In The Name 5 Tabs
Killing In The Name Real Tab Tabs
Renegadez Of Funk Tabs
Without A Face 2 Tabs


Song lyrics



↑ Back to top | Tablatures and chords are parodies/interpretations of the original songs. You may use it for private study, scholarship, research or language learning purposes only
© 2014 AZChords.com Contact us | Privacy policy | DMCA | Add/correct tabs | Request tabs | Top 50 tabs