>
 >
Bulls On Parade 7

Bulls On Parade 7 Bass Tabs

Rage Against The Machine - Bulls On Parade 7 chords, tabs, tablatures, lyrics

Guitar lessons | Add/correct | Request | Top 50 tabs Artists:  A B C D E F G H I J K L M N O P Q R S T U V W X Y Z 0-9

Bulls On Parade 7 Bass Tabs – Rage Against The Machine

CD, Sheet music, Poster

Do you like Bulls On Parade 7? Share with your friends now
Bass TabsBass Tabs v2Bass Tabs v3Bass Tabs v4Bass Tabs v5Bass Tabs v6Bass Tabs v7Bass Tabs v8Bass Tabs v9ChordsDrum TabsDrum Tabs v2TabsTabs v2Tabs v3Tabs v4Tabs v5Tabs v6Ukulele
Ok, so you know what REALLY pisses me off? When I have to learn from 5 diffrent sorces 
to play this song on drop "D". Here's how I played the song to sound good with this song 
playlist.com. Here it is, take it or leave it:

Intro/Outro
G|--------------------|
D|-3----3-3----3-3----|
A|--------------------|
D|---3------3------3--|

Pre-Verse
G|-----x-x-----x-x-x-x-x-x-|
D|-----x-x-----x-x-x-x-x-x-|
A|-----x-x-----x-x-x-x-x-x-|
E|-3-3-x-x-3-3-x-x-x-x-x-x-|

Verse
G|-----------------------------|
D|-----------------------------|
A|------0--2-0-----------------|
D|-1-3----------3----3-1--1-2--|

Chorus
G|-----------------------------------------|
D|-----------------------------------------|
A|-----------------------------------------|
D|-4-3-3-3--1-3-3-3--4-3-3-3--3-3-3-3-1-3--|

Bass Solo
G|------------------------|-----------------------|
D|------------7-9----7----|----------7------------|
A|--------7-9------9---7--|------7-9---9-7-5-7----|
D|-5-5--5-----------------|-5-5----------------3--|

G|-------------------------|-------------------------|
D|-------------------------|--------7h9-9-9-7h9-9-9--|
A|--------7h9-9-9-7h9-9-9--|-------------------------|
D|-5-5--5------------------|-5-5--5------------------|

Ending
G|-----x-x-----x-x-x-x-------|
D|-----x-x-----x-x-x-x-------|
A|-----x-x-----x-x-x-x-------|
E|-3-3-x-x-3-3-x-x-x-x-1--1--|





Comments


Popular Rage Against The Machine tabs & chords
Ashes In The Fall  Bass Tabs
Bullet To The Head Bass Tabs
Im Housin 4 Bass Tabs
Ashes In The Fall  Drum Tabs
Settle For Nothing Drum Tabs
Good Morning Vietnam 1 Tabs
Guerilla Radio Tabs
Killing In The Name 4 Tabs
Killing In The Name Of Tabs
Yea Ofthe Boomerang Tabs


Song lyrics



↑ Back to top | Tablatures and chords are parodies/interpretations of the original songs. You may use it for private study, scholarship, research or language learning purposes only
© 2014 AZChords.com Contact us | Privacy policy | DMCA | Add/correct tabs | Request tabs | Top 50 tabs