» » »

Bullet In The Head Bass tabs (ver.1)

Artists:  A B C D E F G H I J K L M N O P Q R S T U V W X Y Z # 

Bullet In The Head Bass tabs (ver.1)

Rage Against The Machine
Rating:
0/5 (0 votes)

Hard to play? Try these video lessons and learn fast.
                (2)
TRACK: 5
BASS PLAYER: TIM COMMERFORD
TUNING:
E,A,D,G
THIS IS SUCH A GOOD RAGE SONG AND I HOPE YOU ENJOY MY FIRST TAB AND PLEASE RATE IT.

h= HAMMER
/= SLIDE UP
\= SLIDE DOWN
= ACCENTUATE (PLAY IT LOUDER)

INTRO/VERSE 
G|--------------7------
D|--------------6------
A|-7-7---77-7----------
E|------------0--------

VARIATIONS OF THE MAIN RIFF/VERSE
    1ST VARIATION      2ND VARIATION       3RD VARIATION
G|------------------|---------------7h9-|------------7/8--              
D|------------6/7---|------------7h9----|------------6/7--
A|-7-7---77-7-7/8---|-7-7---77-7--------|-7-7---77-7------
E|------------------|-------------------|-----------------
   
BRIDGE
G|---------------------
D|---------------------
A|---------2-----------
E|-0-3-5-----3-5-0-----

CHORUS 1
LET GUITAR PLAY CHORUS TWICE THEN JOIN IN
G|------------------------------------------------------------
D|------------------------------------------------------------
A|-7-7-7-7-7-7-7-7-7-7-7-7-7-7-7-7-7-7-7-7-7-7-7-7-7-7-7-7-7--
E|------------------------------------------------------------

CHORUS 2 WITH GUITAR
G|-----------------------------------
D|-----------------------------------
A|-7-7-7-7-7-5-----------------------
E|-------------5-6-5-0-3-5-3-0-0-0---

CHORUS 3/BASS SOLO
G|-----------------------------------
D|-----------------------------------
A|-7-7-7-7-7-5-----------------------
E|-------------5-6-5-0-3-5-3-0-0-0---
THEN GUITAR JOINS BACK IN WITH BASS

OUTRO 1
G|---------------------
D|---------------------
A|-7--7-7--------------
E|-------0-0-0-0-0----- 

0UTRO 2
PLAY VERY FAST                                 
G|------------------------------------------------------
D|--------------------------------------------->--------
A|-7-7-7-7-7-7-7-7-7-7-7-7-7-7-7-7-7-7-7-7-7-7-7-(7)\--- SLIDE FROM 7
E|------------------------------------------------------

ORDER:
4x INTRO/VERSE
16x VERSE (PLAY 1ST VARIATION ON THE 10TH TIME)(PLAY 2ND VARIATION ON THE 12TH TIME)(PLAY 3RD VARIATION ON THE 14TH TIME)

2x BRIDGE
8x VERSE (PLAY 1ST VARIATION ON THE 4TH TIME)

2x BRIDGE
12x VERSE (PLAY 3RD VARIATION ON THE 4TH TIME)  

2x BRIDGE
1x CHORUS 1
8x CHORUS 2 
12x BASS SOLO/CHORUS 3
16x CHORUS 2 
8x OUTRO 1
1x OUTRO 2

I THINK THIS IS THE RIGHT ORDER & THE AMOUNT OF TIMES YOU NEED TO DO EACH PART BUT PLEASE CORRECT ME IF IM WRONG.
            
Hard to play? Try these video lessons and learn fast. | Correct




comments powered by Disqus
↑ Back to top | Tablatures and chords are parodies/interpretations of the original songs. You may use it for private study, scholarship, research or language learning purposes only