» » »

Rage Against The Machine, Bullet In The Head Tabs (ver.2)

Artists:  A B C D E F G H I J K L M N O P Q R S T U V W X Y Z # 

Bullet In The Head Tabs (ver.2)

Rage Against The Machine Tabs
 Rating:
3.3/5 (13 votes)
Bullet In The Head lessons Tabs too difficult? Try these video lessons and learn fast
                  This song is amazing, anybody who truly liks rage against the machine (anybody
who doesnt like them because there friend likes them)are a friend of mine.
  The tuning is normal ,(e,b,g,d,a,e)hope you like it

P.S i also worked out the begining which is in bass guitar onto electric.
   

 intro/verse
E-------------------  repeat that for for a 4 bar intro then the vocls come in
B-------------------  so you repeat it for 16 bars.
G-------------------
D-------------------
A--7-7--7-7-7-0--6-- 
E----------------5--

chorus 2 times
E----------------------
B----------------------
G----------------------
D----------------------
A-2-------2-----2------
E-0-3-5-----3-5-0-1b-1r


repeaat verse then chorus

solo
I HAVENT WORKED OUT WHAT HE DOES WITH THE WAH WAH BUT THIS IS WHAT I GOT
(play each bar twice only for the solo)

E-12-0-0-10-0-0-8-0-0-7-0-0-5-0-0-3-0-0-0-0-0-0
B----------------------------------------------
G----------------------------------------------
D----------------------------------------------
A----------------------------------------------
E----------------------------------------------

E-15-----14-----13-----12----11----  for the second bar dont play the
B---14-----13-----12-----11----10--  last 3 notes.
G----12-----11-----10------9-----8-
D----------------------------------
A----------------------------------
E----------------------------------

 DONT PLAY THIS TWICE!       

       hold bend               hold bend
    _________________       ________________
E---------------------------------------------------------------- when you hold
B-15b-15-15-15-15-15-15r-15b-15-15-15-15-15-15r-15b-15r-12------- the bend the 
G---------------------------------------------------------14-12-- notes are 
D---------------------------------------------------------------- played ever 
A---------------------------------------------------------------- so quickly.
E----------------------------------------------------------------

         hold bend              hold bend                 V
     ________________       ________________         ~~~~~~~~~~~
E-----------------------------------------------------15b-----12-
B-15b-15-15-15-15-15-15r-15b-15-15-15-15-15-15r-12---------------
G----------------------------------------------------------------
D----------------------------------------------------------------
A----------------------------------------------------------------
E----------------------------------------------------------------

after the solo go back to chorus then verse

repeat chorus Then play this 
P.M.-----------------------------
E----------------------------------
B----------------------------------
G----------------------------------
D----------------------------------
A-7-7-7-7-7-5----------------------
E-------------5-6-5-0-3-5-3-0-0-0--

or the harder version
P.M.------------------------------
E----------------------------------
B----------------------------------
G----------------------------------
D-----------7----------------------
A-7-7-7-7-7-5-7-0-7---5-7-5--------
E-------------5-6-5-0-3-5-3-0-0-0--

EITHER WAY YOU PLAY THAT FOR 4 BARS AND THEN YOU PLAY THIS 8 TIMES

E----------------------------------
B----------------------------------
G----------------------------------
D-9-9-9-9-9-7----------------------
A-7-7-7-7-7-5-7-0-7---5-7-5-2-2-2--
E-------------5-6-5-0-3-5-3-0-0-0--

wait for 9 bars while the bass continues 
after 9 bars start playing either palm muted versions for 8 bars
then play the open string version for 4 bars .  

ENDING
    p.m.---------    p.m.---------    
E----------------------------------------
B----------------------------------------
G-9-9-9------------9-9-9-----------9-9-9-
D-9-9-9------------9-9-9-----------9-9-9-
A-7-7-7------------7-7-7-----------7-7-7-
E-------0-0-0-0-0--------0-0-0-0-0-------


E----------------------------------------------------------------
B----------------------------------------------------------------
G----------------------------------------------------------------
D----------------------------------------------------------------
A----------------------------------------------------------------
E-0-0-0-0-0-0-0-0-0-0-0-0-0-0-0-0-0-0-0-0-0-0-0-0-0-0-0-0-0-0-0-0

E------
B------
G------
D------
A-2----
E-0----

Hope you like it guys, happy playing
            
Submit corrections

comments powered by Disqus
↑ Back to top | Rage Against The Machine Tabs for Bullet In The Head. Lyrics for acoustic guitar and electric guitar. Tablatures and chords are parodies/interpretations of the original songs. You may use it for private study, scholarship, research or language learning purposes only