» » »

Bomb Track Tabs (ver.12)

Artists:  A B C D E F G H I J K L M N O P Q R S T U V W X Y Z # 

Bomb Track Tabs (ver.12)

Rage Against The Machine
Rating:
0/5 (0 votes)

Hard to play? Try these video lessons and learn fast.
                i broke this up into the different parts. figure the timing and repetition on your own

b = bend
r = release
v = vibrate
x = slap
\ = slide
h = hammer on
p = pull off



intro: all palm muted
e|--------------------------------|
B|--------------------------------|
G|--------------------------------|
D|-----------------------------5--|
A|---7-5---5---------7-5---5-7----|
E|-0-----7---7-5-3-0-----7--------|

e|---------------------------------|
B|---------------------------------|
G|---------------------------------|
D|---------------------------------|
A|---7-5---5---------7-5---5-------|
E|-0-----7---7-5-3-0-----7---7-5-3-|

e|----------------------------------------|
B|----------------------------------------|
G|----------------------------------------|
D|------------------------------5h7p5h7p5-|
A|---7-5---5----------7-5---5-7-----------|
E|-0-----7---7-5-3-0------7---------------|

e|---------------------------------|
B|---------------------------------|
G|---------------------------------|  x2
D|---------------------------------|
A|---7-5---5---------7-5---5-------|
E|-0-----7---7-5-3-0-----7---7-5-3-|

e|----------------------------------|
B|----------------------------------|
G|----------------------------------|
D|----------------------------------|
A|---7-5---5---------------2-2-2-2--|
E|-0-----7---7-5-3-0-0-0-0-0-0-0-0--|
                   gradually release palm mute

Chorus:
e|-------------------------------|
B|-------------------------------|
G|-------------------------------|
D|---------4---------------4--2--|
A|-2---4-------2-4---2-4---------|
E|-0---2-------0-2---0-2---------|

e|-------------------------------|
B|-------------------------------|
G|-------------------------------|
D|---------4-----------6--5--4---|   x?
A|-2---4-------2-4-----4--3--2---|
E|-0---2-------0-2---0-----------|

then after a while
e|--------------------------------------|
B|--------------------------------------|
G|--------------------------------------|
D|---------4-----------6--hold----------|
A|-2---4-------2-4-----4--hold----------|
E|-0---2-------0-2---0------------14\---|

verse:
e|------------------------------|
B|------------------------------|
G|------------------------------|
D|------------------------------|
A|------------------------------|
E|-2--2---0---2-2---2----0---5--|

e|------------------------------|
B|------------------------------|
G|------------------------------|
D|-----------------4-2----------|
A|---------------------4-3-2-0--|
E|-2--2---0---2p0---------------|

e|------------------------------|
B|------------------------------|
G|------------------------------|
D|------------------------------|
A|------------------------------|
E|-2--2---0---2-2---2----0---5--|

e|-------------------------------------|
B|-------------------------------------|
G|-------------------------------------|
D|-----------------x-x-x-x-x-x-x-x-----|  x?
A|-----------------x-x-x-x-x-x-x-x-----|
E|-2--2---0---2p0--x-x-x-x-x-x-x-x-----|


bridge"
e|----------------------------------|
B|----------------------------------|
G|----------------------------------|
D|-----------------------x-x-x-x----|
A|-----------------------x-x-x-x----|
E|-2p0-2p0-5--2p0-2p0-2--x-x-x-x----|

e|----------------------------------|
B|----------------------------------|
G|----------------------------------|
D|----------------------------------|
A|--------------------4p0-3p0-2p0---|
E|-2p0-2p0-5--2p0-2p0---------------|

solo:
e|------------------------------|
B|------------------------------|
G|----14----16----14----16\-----|
D|--x-14--x-16--x-14--x-16\-----|
A|------------------------------|
E|------------------------------|

e|----------------------------------------|
B|--------------14-17b19-19-19-19-19r17---|
G|----14----16----------------------------|
D|--x-14--x-16----------------------------|
A|----------------------------------------|
E|----------------------------------------|

e|------------------------------|
B|------------------------------|
G|----14----16----14----16\-----|
D|--x-14--x-16--x-14--x-16\-----|
A|------------------------------|
E|------------------------------|

e|--------------/14--16-17-16-17-16b17r16v-|
B|-----------------------------------------|
G|----14----16-----------------------------|
D|--x-14--x-16-----------------------------|
A|-----------------------------------------|
E|-----------------------------------------|

e|------------------------------|
B|------------------------------|
G|------------------------------|
D|------------------------------|
A|------------------------------|
E|-2--2---0---2-2---2----0---5--|


thats it good song
            
Hard to play? Try these video lessons and learn fast. | Correct




comments powered by Disqus
↑ Back to top | Tablatures and chords are parodies/interpretations of the original songs. You may use it for private study, scholarship, research or language learning purposes only