» » »

Rage Against The Machine, Bomb Track Tabs (ver.11)

Artists:  A B C D E F G H I J K L M N O P Q R S T U V W X Y Z # 

Bomb Track Tabs (ver.11)

Rage Against The Machine Tabs
 Rating:
3.8/5 (5 votes)
Bomb Track lessons Tabs too difficult? Try these video lessons and learn fast
                
I am 100% sure this is the correct way to play the song. Its better than the other tabs
that are on here.


Intro

E|-----------------|--------------------
B|-----------------|--------------------
G|-----------------|---------------0----
D|--2-0--0---------|----2-0---0-2-------
A|------2--2-------|--------2-----------
E|-0----------3-0--|-0------------------

E|-----------------|-----------------
B|-----------------|-----------------
G|-----------------|-----------------
D|--2-0--0---------|---2-0--0--------
A|------2--2-------|-------2--2------
E|-0----------3-0--|-0----------3-2--

Chorus

E|-----------------------------------
B|-----------------------------------
G|-----------------------------------
D|-----------------------------------
A|-----4---------4-2----4-------4-3-2
E|-0-2--0-2-0-2----0-2--0-2-0--------


Verse

E|---------------------|--------------------
B|---------------------|--------------------
G|---------------------|--------------------
D|---------------------|---------4-3--------
A|---------------------|-------------4-3-2-0
E|2-2-0-2-2-2-2-5--|-2-2-0-2----------------


Bridge

E|------------------------|-------------------------------
B|------------------------|-------------------------------
G|------------------------|-------------------------------
D|------------------------|-------------------------------
A|------------------------|--------------------4-0-3-0-2-0
E|-2-0-2-0-5-2-0-2-0-2|-2-0-2-0-5-2-0-2-0-----------------

Ending


E|---------------------------------------------
B|---------------------------------------------
G|---------------------------------------------
D|---------------------------------------------
A|-----4----------4-2-----4-------4-3-2---3-2-1
E|-0-2-0-2-0-2------0-2---0-2-0----------------
            
Submit corrections

comments powered by Disqus
↑ Back to top | Rage Against The Machine Tabs for Bomb Track. Lyrics for acoustic guitar and electric guitar. Tablatures and chords are parodies/interpretations of the original songs. You may use it for private study, scholarship, research or language learning purposes only