» » »

Bomb Track Tabs (ver.9)

Artists:  A B C D E F G H I J K L M N O P Q R S T U V W X Y Z # 

Bomb Track Tabs (ver.9)

Rage Against The Machine
Rating:
2.5/5 (50 votes)

Hard to play? Try these video lessons and learn fast.
                Hey again! What left to say? A very great song, pretty easy, perhaps except for
the intro.... again, I'm not sure that this tab is 100% correct, but this souns
right to me! And again again, check out those lyrics! goddamn ;)

Intro (guitar AND bass):
E----------------------------------------------------------------------------
B----------------------------------------------------------------------------
G-----------------------------0----------------------------------------------
D---2-0---0---------2-0---0-2--------2-0---0---------2-0---0----------2-0----
A-------2---2-0---------2----------------2---2-0---------2---2------------2--
E-0-------------3-0----------------0-------------3-0-----------3-2--0--------

E---------------------------------------------------------------
B---------------------------------------------------------------
G----------------------0h2p0------------------------------------
D-0----------2-0---0-2----------2-0---0---------2-0---0---------
A---2--0---------2------------------2---2-0---------2---2-------
E--------3-0------------------0-------------3-0-----------3-2---

E----------------------------------------------------------------------------
B----------------------------------------------------------------------------
G-----------------------------2----------------------------------------------
D---2-0---0---------2-0---0-2--------2-0---0---------2-0---0----------2-0---0
A-------2---2-0---------2----------------2---2-0---------2---2------------2--
E-0-------------3-0----------------0-------------3-0-----------3-2--0--------

E----------------------------------------------------------------------------
B----------------------------------------------------------------------------
G-------------------0h2p0----------------------------------------------------
D---------2-0---0-2----------2-0---0---------2-0---0---------2-0---0---------
A-2-0---------2------------------2---2-0---------2---2-----------2---2-0-----
E-----3-0------------------0-------------3-0-----------3-2-0-------------3-0-

chorus:
  Uh!       Hey yo it's just another bombtrack!
E----------------------------------------------------------------------------
B----------------------------------------------------------------------------
G------------------------------------------------------------6--5--4---------
D-----------4------------------4---2-----------4-------------6--5--4---------
A------------------------------------------------------------4--3--2---------
E---0---2------0---2---0---2-----------0---2------0---2---0------------------
                             
E----------------------------------------------------------------------------
B----------------------------------------------------------------------------
G------------------------------------------------------------6--5--4---------
D-----------4------------------4---2-----------4-------------6--5--4---------
A------------------------------------------------------------4--3--2---------
E---0---2------0---2---0---2-----------0---2------0---2---0------------------

Verse riff:
E----------------------------------------------------------------------------
B----------------------------------------------------------------------------
G----------------------------------------------------------------------------
D----------------------------------------------4---2-------------------------
A-----------------------------------------------------4---3---2--------------
E--2---2---0---2---2---2-—-5b----2---2---0---2--------------------5----------

Verse 1: It goes a one, two, three, and it's just another
bombtrack, and suckas be thinking that they can fake this! But I'm a drop it at a
higher level, cause I'm inclined to stoop down, hand out some beatdowns. Cold
runna train on punk ho's that they think that they run the game. But I learned to
burn that brigde and delete those who compete at a level so obsolete. Instead I
warm my hands upon the flames of the flag, as I recall our downfall and
buis'nesses that burned us all. See through the news and the views that twist
reality. Enough, I call the bluff for manifest destiny, landlords and
powerwhores, on my people they took turns. Dispute the suits I ignite and watch
them burn with the thoughts from a militant mind. Hardline hardline after
hardline. Landlords and powerwhores on my people they took turns. Dispute the
suits I ignite and watch 'em burn!

chorus

Verse 2: It goes a one, two, three........
Another funky radical bombtrack started as a sketch in my notebook. And now dope
hooks make punks take another look. My thoughts ya hear, and ya begin to fear
that ya card will get pulled if you interfere with the thoughts from a militant,
militant mind, hardline, hardline after hardline. Landlords and powerwhores, on
my people they took turns. Dispute the suits I ignite and then watch 'em burn!

Chorus

Guitar"solo":
E----------------------------------------------------------------------------
B----------------------------------------------------------------------------
G----------------------------------------------------------------------------
D----------------------------x--x--x--x--------------------------------------
A----------------------------x--x--x--x-------------------------4p0—-3p0—-2p0
E---2p0—-2p0--5--2p0--2p0—2--x--x--x--x---2p0—-2p0--5--2p0--2p0--------------

E----------------------------------------------------------------------------
B----------------------------------------------------------------------------
G----------------------------------------------------------------------------
D----------------------------x--x--x--x--------------------------------------
A----------------------------x--x--x--x-------------------------4p0—-3p0—-2p0
E---2p0—-2p0--5--2p0--2p0—2--x--x--x--x---2p0—-2p0--5--2p0--2p0--------------

E----------------------------------------------------------------------------
B----------------------------------------------17b—-17b—-17b—-17b—17b--17----
G--x-14---x-16---x-14---x-16---x-14---x-16-----------------------------------
D--x-14---x-16---x-14---x-16---x-14---x-16-----------------------------------
A----------------------------------------------------------------------------
E-----------------—----------------------------------------------------------

E---------------------------------------------14--16--17--16--17--16---------
B----------------------------------------------------------------------------
G--x-14---x-16---x-14---x-16---x-14---x-16-----------------------------------
D--x-14---x-16---x-14---x-16---x-14---x-16-----------------------------------
A----------------------------------------------------------------------------
E-----------------—----------------------------------------------------------

Chorus

End on this:
E--------------------
B--------------------
G--4--3--2-----------
D--4--3--2-----------
A--2--1--0-----------
E--------------------
            
Hard to play? Try these video lessons and learn fast. | Correct




comments powered by Disqus
↑ Back to top | Tablatures and chords are parodies/interpretations of the original songs. You may use it for private study, scholarship, research or language learning purposes only