» » »

Rage Against The Machine, Bomb Track Tabs (ver.8)

Artists:  A B C D E F G H I J K L M N O P Q R S T U V W X Y Z # 

Bomb Track Tabs (ver.8)

Rage Against The Machine Tabs
 Rating:
4/5 (7 votes)
Bomb Track lessons Tabs too difficult? Try these video lessons and learn fast
                ---------------------------------------------------------------------
Bombtrack by Rage Against The Machine
---------------------------------------------------------------------



Intro: (Played with a right hand mute)


Repeat twice


e|-------------------------------------------------------------------
B|-------------------------------------------------------------------
G|---------------------------------------------------------0---------
D|----2--0-------0--------------------2---0------0----2--------------
A|-----------2------2----0--------------------2----------------------
E|-0--------------------------3---0----------------------------------

e|-------------------------------------------------------------------
B|-------------------------------------------------------------------
G|-------------------------------------------------------------------
D|----2--0-------0--------------------2---0------0-------------------
A|-----------2------2----0--------------------2-------2--------------
E|-0--------------------------3---0------------------------3--2------

e|-------------------------------------------------------------------
B|-------------------------------------------------------------------
G|---------------------------------------------------------0h2-------
D|----2--0-------0--------------------2---0------0----2--------------
A|-----------2------2----0--------------------2----------------------
E|-0--------------------------3---0----------------------------------

e|-------------------------------------------------------------------
B|-------------------------------------------------------------------
G|-------------------------------------------------------------------
D|----2--0-------0--------------------2---0------0-------------------
A|-----------2------2----0--------------------2-------2--------------
E|-0--------------------------3---0------------------------3--2------


First Riff:


e|-------------------------------------------------------------------
B|-------------------------------------------------------------------
G|-------------------------------------------------------------------
D|---------4----------------------4----2------------4----------------
A|-------------------------------------------------------------------
E|-0---2------0----2-----0----2------------0----2-------0---2--------

e|-------------------------------------------------------------------
B|-------------------------------------------------------------------
G|-------------------------------------------------------------------
D|--6---5---4--------------------------------------------------------
A|--4---3---2--------------------------------------------------------
E|-------------------------------------------------------------------



Second Riff:



e|-------------------------------------------------------------------
B|-------------------------------------------------------------------
G|-------------------------------------------------------------------
D|------------------------------------------------------------4---2--
A|-------------------------------------------------------------------
E|--2---2---0----2----2----2----2-----5----2----2----0----2----------

e|-------------------------------------------------------------------
B|-------------------------------------------------------------------
G|-------------------------------------------------------------------
D|-------------------------------------------------------------------
A|-4----3----2-------------------------------------------------------
E|----------------5--------------------------------------------------



Pre Solo Riff:



e|-------------------------------------------------------------------
B|-------------------------------------------------------------------
G|-------------------------------------------------------------------
D|----------------------------------------x-x-x-x--------------------
A|----------------------------------------x-x-x-x--------------------
E|--2---0---2---0---5---2---0---2---0---2-x-x-x-x--------------------

e|-------------------------------------------------------------------
B|-------------------------------------------------------------------
G|-------------------------------------------------------------------
D|-------------------------------------------------------------------
A|--------------------------------------4--0--3--0--2--0-------------
E|--2---0---2---0---5---2---0---2---0--------------------------------



Solo:



e|----------------------------------------------14--14--14-----------
B|----------------------------------14---17h19---------------19h17---
G|----14---16---14---16---14---16------------------------------------
D|----14---16---14---16---14---16------------------------------------
A|-------------------------------------------------------------------
E|-------------------------------------------------------------------


e|-------------------------0---14---17---16---17---16---16~~~~~~~~~~-
B|-------------------------------------------------------------------
G|----14---16---14---16----------------------------------------------
D|----14---16---14---16----------------------------------------------
A|-------------------------------------------------------------------
E|-------------------------------------------------------------------



Ending:



e|-------------------------------------------------------------------
B|-------------------------------------------------------------------
G|-------------------------------------------------------------------
D|----6---5---4---4---3---2------------------------------------------
A|----4---3---2---2---1---0------------------------------------------
E|------------------------------------------------------------------
            
Submit corrections

comments powered by Disqus
↑ Back to top | Rage Against The Machine Tabs for Bomb Track. Lyrics for acoustic guitar and electric guitar. Tablatures and chords are parodies/interpretations of the original songs. You may use it for private study, scholarship, research or language learning purposes only