>
 >
Bombtrack 3

Bombtrack 3 Guitar Tabs

Rage Against The Machine - Bombtrack 3 chords, tabs, tablatures, lyrics

Guitar lessons | Add/correct | Request | Top 50 tabs Artists:  A B C D E F G H I J K L M N O P Q R S T U V W X Y Z 0-9

Bombtrack 3 Guitar Tabs – Rage Against The Machine

CD, Sheet music, Poster

Do you like Bombtrack 3? Share with your friends now
Bass TabsBass Tabs v2Bass Tabs v3Bass Tabs v4Bass Tabs v5TabsTabs v2Tabs v11Tabs v12Tabs v3Tabs v4Tabs v5Tabs v6Tabs v7Tabs v8Tabs v9Tabs v10
Band/Arstis: Rage Against The Machine

I transcribed this tab in guitar pro..then i export to ASCII.
pls rate..tnx..enjoy...
                                                        
Tom Morello / Guitar



     00:00  PM ....                               
     S              S S S S S S S S S S S S S E   
E||----------------------------------------------|
B||----------------------------------------------|
G||-------------------------------------------0--|
D||-----------------2-0---0---------2-0---0-2----|
A||---------------------2---2-0---------2--------|
E||--0--------------------------3-0--------------|


  S S S S S S S S S S S S S S S S    S S S S S S S S S S S S S S T  T  T  T  
----------------------------------|-----------------------------------------|
----------------------------------|-----------------------------------------|
----------------------------------|------------------------------0h-2p-0h-2-|
----2-0---0---------2-0---0-------|----2-0---0---------2-0---0-2------------|
--------2---2-0---------2---2-----|--------2---2-0---------2----------------|
--0-------------3-0-----------3-2-|--0-------------3-0----------------------|


                                     00:12                               
  S S S S S S S S S S S S S S S S    S     S S S S S S S S S S S S S E   
----------------------------------|-------------------------------------|
----------------------------------|-------------------------------------|
----------------------------------|----------------------------------0--|
----2-0---0---------2-0---0-------|--------2-0---0---------2-0---0-2----|
--------2---2-0---------2---2-----|------------2---2-0---------2--------|
--0-------------3-0-----------3-2-|--0-----------------3-0--------------|


  S S S S S S S S S S S S S S S S    S S S S S S S S S S S S S S T  T  T  T  
----------------------------------|-----------------------------------------|
----------------------------------|-----------------------------------------|
----------------------------------|------------------------------0h-2p-0h-2-|
----2-0---0---------2-0---0-------|----2-0---0---------2-0---0-2------------|
--------2---2-0---------2---2-----|--------2---2-0---------2----------------|
--0-------------3-0-----------3-2-|--0-------------3-0----------------------|


                  release PM     00:24                         
  S S S S S S S S H             E      E  E  S S S S E  E  E   
-----------------------------|--------------------------------|
-----------------------------|--------------------------------|
-----------------------------|--------------------------------|
----2-0---0------------------|------------4-------------4--2--|
--------2---2-0--------------|--------------------------------|
--0-------------3-0----------|--0------2-----0-2---0-2--------|


  E  E  E  S S S S E  E  E     E  E  E  S S S S E  E  E   
----------------------------|----------------------------|
----------------------------|----------------------------|
-------------------6--5--4--|----------------------------|
--------4----------6--5--4--|--------4-------------4--2--|
-------------------4--3--2--|----------------------------|
--0--2-----0-2---0-4--3--2--|--0--2-----0-2---0-2--------|


                               00:37                         
  E  E  E  S S S S E  E  E     E     E  E  S S S S E  E  E   
----------------------------|-------------------------------|
----------------------------|-------------------------------|
-------------------6--5--4--|-------------------------------|
--------4----------6--5--4--|-----------4-------------4--2--|
-------------------4--3--2--|-------------------------------|
--0--2-----0-2---0-4--3--2--|--0-----2-----0-2---0-2--------|


  E  E  E  S S S S E  E  E     E  E  E  S S S S E  E  E   
----------------------------|----------------------------|
----------------------------|----------------------------|
-------------------6--5--4--|----------------------------|
--------4----------6--5--4--|--------4-------------4--2--|
-------------------4--3--2--|----------------------------|
--0--2-----0-2---0-4--3--2--|--0--2-----0-2---0-2--------|


  E  E  E  S S S S E  Q       H.           S S  E   
---------------------------|-----------------------|
---------------------------|-----------------------|
-------------------6--L----|--L------------L-L-----|
--------4----------6--L----|--L------------L-L-----|
-------------------4--L----|--L------------L-L-----|
--0--2-----0-2---0-4--L----|--L------------L-x-14--|


  00:52                                                         
  E     E  E  S S S S S S Q        E  E  E  S S S S S S S E.    
--------------------------------|------------------------------|
--------------------------------|------------------------------|
--------------------------------|------------------------------|
--------------------------------|---------------4-2------------|
--------------------------------|-------------------4-3-2------|
--2-----2--0--2-2---2---2-5b----|--2--2--0--2-0-----------5b---|


  E  E  E  S S S S S S Q        E  E  E  S S S S S S S E.    
-----------------------------|------------------------------|
-----------------------------|------------------------------|
-----------------------------|------------------------------|
-----------------------------|---------------4-2------------|
-----------------------------|-------------------4-3-2------|
--2--2--0--2-2---2---2-5b----|--2--2--0--2-0-----------5b---|


  01:05                                                         
  E     E  E  S S S S S S Q        E  E  E  S S S S S S S E.    
--------------------------------|------------------------------|
--------------------------------|------------------------------|
--------------------------------|------------------------------|
--------------------------------|---------------4-2------------|
--------------------------------|-------------------4-3-2------|
--2-----2--0--2-2---2---2-5b----|--2--2--0--2-0-----------5b---|


  E  E  E  S S S S S S Q        E  E  E  S S H         
-----------------------------|------------------------|
-----------------------------|------------------------|
-----------------------------|------------------------|
-----------------------------|------------------------|
-----------------------------|------------------------|
--2--2--0--2-2---2---2-5b----|--2--2--0--2-2----------|


  01:18                                                         
  E     E  E  S S S S S S Q        E  E  E  S S S S S S S E.    
--------------------------------|------------------------------|
--------------------------------|------------------------------|
--------------------------------|------------------------------|
--------------------------------|---------------4-2------------|
--------------------------------|-------------------4-3-2------|
--2-----2--0--2-2---2---2-5b----|--2--2--0--2-0-----------5b---|


  E  E  E  S S S S S S Q        E  E  E  S S S S S S S E.    
-----------------------------|------------------------------|
-----------------------------|------------------------------|
-----------------------------|------------------------------|
-----------------------------|---------------4-2------------|
-----------------------------|-------------------4-3-2------|
--2--2--0--2-2---2---2-5b----|--2--2--0--2-0-----------5b---|


  01:31                                                         
  E     E  E  S S S S S S Q        E  E  E  S S S S S S S E.    
--------------------------------|------------------------------|
--------------------------------|------------------------------|
--------------------------------|------------------------------|
--------------------------------|---------------4-2------------|
--------------------------------|-------------------4-3-2------|
--2-----2--0--2-2---2---2-5b----|--2--2--0--2-0-----------5b---|


  E  E  E  S S S S S S Q        E  E  E  S S H         
-----------------------------|------------------------|
-----------------------------|------------------------|
-----------------------------|------------------------|
-----------------------------|------------------------|
-----------------------------|------------------------|
--2--2--0--2-2---2---2-5b----|--2--2--0--2-2----------|


  01:43                                                      
  E     E  E  S S S S E  E  E     E  E  E  S S S S E  E  E   
-------------------------------|----------------------------|
-------------------------------|----------------------------|
-------------------------------|-------------------6--5--4--|
-----------4-------------4--2--|--------4----------6--5--4--|
-------------------------------|-------------------4--3--2--|
--0-----2-----0-2---0-2--------|--0--2-----0-2---0-4--3--2--|


  E  E  E  S S S S E  E  E     E  E  E  S S S S E  E  E   
----------------------------|----------------------------|
----------------------------|----------------------------|
----------------------------|-------------------6--5--4--|
--------4-------------4--2--|--------4----------6--5--4--|
----------------------------|-------------------4--3--2--|
--0--2-----0-2---0-2--------|--0--2-----0-2---0-4--3--2--|


  01:55                                                      
  E     E  E  S S S S E  E  E     E  E  E  S S S S E  E  E   
-------------------------------|----------------------------|
-------------------------------|----------------------------|
-------------------------------|-------------------6--5--4--|
-----------4-------------4--2--|--------4----------6--5--4--|
-------------------------------|-------------------4--3--2--|
--0-----2-----0-2---0-2--------|--0--2-----0-2---0-4--3--2--|


  E  E  E  S S S S E  E  E     E  E  E  S S S S E  Q     
----------------------------|---------------------------|
----------------------------|---------------------------|
----------------------------|-------------------6--L----|
--------4-------------4--2--|--------4----------6--L----|
----------------------------|-------------------4--L----|
--0--2-----0-2---0-2--------|--0--2-----0-2---0-4--L----|


                          02:11                          
  H.           S S  E     E     E  E  S S S S S S Q      
-----------------------|--------------------------------|
-----------------------|--------------------------------|
--L------------L-L-----|--------------------------------|
--L------------L-L-----|--------------------------------|
--L------------L-L-----|--------------------------------|
--L------------L-x-14--|--2-----2--0--2-2---2---2-5b----|


  E  E  E  S S S S S S S E.      E  E  E  S S S S S S Q      
------------------------------|-----------------------------|
------------------------------|-----------------------------|
------------------------------|-----------------------------|
---------------4-2------------|-----------------------------|
-------------------4-3-2------|-----------------------------|
--2--2--0--2-0-----------5b---|--2--2--0--2-2---2---2-5b----|


                                 02:24                          
  E  E  E  S S S S S S S E.      E     E  E  S S S S S S Q      
------------------------------|--------------------------------|
------------------------------|--------------------------------|
------------------------------|--------------------------------|
---------------4-2------------|--------------------------------|
-------------------4-3-2------|--------------------------------|
--2--2--0--2-0-----------5b---|--2-----2--0--2-2---2---2-5b----|


  E  E  E  S S S S S S S E.      E  E  E  S S S S S S Q      
------------------------------|-----------------------------|
------------------------------|-----------------------------|
------------------------------|-----------------------------|
---------------4-2------------|-----------------------------|
-------------------4-3-2------|-----------------------------|
--2--2--0--2-0-----------5b---|--2--2--0--2-2---2---2-5b----|


                             02:37                         
  E  E  E  S S   H           E     E  E  S S S S E  E  E   
--------------------------|-------------------------------|
--------------------------|-------------------------------|
--------------------------|-------------------------------|
--------------------------|-----------4-------------4--2--|
--------------------------|-------------------------------|
--2--2--0--2-2br-L--------|--0-----2-----0-2---0-2--------|


  E  E  E  S S S S E  E  E     E  E  E  S S S S E  E  E   
----------------------------|----------------------------|
----------------------------|----------------------------|
-------------------6--5--4--|----------------------------|
--------4----------6--5--4--|--------4-------------4--2--|
-------------------4--3--2--|----------------------------|
--0--2-----0-2---0-4--3--2--|--0--2-----0-2---0-2--------|


                               02:49                         
  E  E  E  S S S S E  E  E     E     E  E  S S S S E  E  E   
----------------------------|-------------------------------|
----------------------------|-------------------------------|
-------------------6--5--4--|-------------------------------|
--------4----------6--5--4--|-----------4-------------4--2--|
-------------------4--3--2--|-------------------------------|
--0--2-----0-2---0-4--3--2--|--0-----2-----0-2---0-2--------|


  E  E  E  S S S S E  E  E     E  E  E  S S S S E  E  E   
----------------------------|----------------------------|
----------------------------|----------------------------|
-------------------6--5--4--|----------------------------|
--------4----------6--5--4--|--------4-------------4--2--|
-------------------4--3--2--|----------------------------|
--0--2-----0-2---0-4--3--2--|--0--2-----0-2---0-2--------|


                               03:02                                
  E  E  E  S S S S E  E  E     S     S S S S S S S S S S S S S S S  
----------------------------|--------------------------------------|
----------------------------|--------------------------------------|
-------------------6--5--4--|--------------------------------------|
--------4----------6--5--4--|--------------------------------------|
-------------------4--3--2--|--------------------------------------|
--0--2-----0-2---0-4--3--2--|--0-----0-0-0-0-0-0-0-0-0-0-0-0-0-0-0-|


  S S S S S S S S  S  S  S  S  S  S  S  S  
------------------------------------------|
------------------------------------------|
------------------21-21-21-21-21-21-21-21-|
----------9-9-9-9-21-21-21-21-21-21-21-21-|
--7-7-7-7-7-7-7-7-19-19-19-19-19-19-19-19-|
--0-0-0-0-0-0-0-0--0--0--0--0--0--0--0--0-|


  03:07                                   
  S     S S  S E   S  S  S  S E  S S S S  
-----------------------------------------|
---------------------------------x-x-x-x-|
---------------------------------x-x-x-x-|
---------------------------------x-x-x-x-|
-----------------------------------------|
--2p----0-2p-0-5b--2p-0h-2p-0-2----------|


  S  S S  S E   S  S S  S S  S S  S S  S  
-----------------------------------------|
-----------------------------------------|
-----------------------------------------|
-----------------------------------------|
--------------------------4p-0-3p-0-2p-0-|
--2p-0-2p-0-5b--2p-0-2p-0----------------|


  S  S S  S E   S  S  S  S E  S S S S  
--------------------------------------|
------------------------------x-x-x-x-|
------------------------------x-x-x-x-|
------------------------------x-x-x-x-|
--------------------------------------|
--2p-0-2p-0-5b--2p-0h-2p-0-2----------|


  S  S S  S E   S  S S  S S  S S  S S  S  
-----------------------------------------|
-----------------------------------------|
-----------------------------------------|
-----------------------------------------|
--------------------------4p-0-3p-0-2p-0-|
--2p-0-2p-0-5b--2p-0-2p-0----------------|


  03:20                                   
  S     S S  S E   S  S  S  S E  S S S S  
-----------------------------------------|
---------------------------------x-x-x-x-|
---------------------------------x-x-x-x-|
---------------------------------x-x-x-x-|
-----------------------------------------|
--2p----0-2p-0-5b--2p-0h-2p-0-2----------|


  S  S S  S E   S  S S  S S  S S  S S  S  
-----------------------------------------|
-----------------------------------------|
-----------------------------------------|
-----------------------------------------|
--------------------------4p-0-3p-0-2p-0-|
--2p-0-2p-0-5b--2p-0-2p-0----------------|


  S  S S  S E   S  S  S  S E  S S S S  
--------------------------------------|
------------------------------x-x-x-x-|
------------------------------x-x-x-x-|
------------------------------x-x-x-x-|
--------------------------------------|
--2p-0-2p-0-5b--2p-0h-2p-0-2----------|


                                            03:32                         
  S  S S  S E   S  S S  S S  S S  S S  S    E     E  E  S S S S E  E  E   
-----------------------------------------|-------------------------------|
-----------------------------------------|-------------------------------|
-----------------------------------------|-------------------------------|
-----------------------------------------|-----------4-------------4--2--|
--------------------------4p-0-3p-0-2p-0-|-------------------------------|
--2p-0-2p-0-5b--2p-0-2p-0----------------|--0-----2-----0-2---0-2--------|


  E  E  E  S S S S E  E  E     E  E  E  S S S S E  E  E   
----------------------------|----------------------------|
----------------------------|----------------------------|
-------------------6--5--4--|----------------------------|
--------4----------6--5--4--|--------4-------------4--2--|
-------------------4--3--2--|----------------------------|
--0--2-----0-2---0-4--3--2--|--0--2-----0-2---0-2--------|


                               03:45                         
  E  E  E  S S S S E  E  E     E     E  E  S S S S E  E  E   
----------------------------|-------------------------------|
----------------------------|-------------------------------|
-------------------6--5--4--|-------------------------------|
--------4----------6--5--4--|-----------4-------------4--2--|
-------------------4--3--2--|-------------------------------|
--0--2-----0-2---0-4--3--2--|--0-----2-----0-2---0-2--------|


  E  E  E  S S S S E  E  E     E  E  E  S S S S E  E  E   
----------------------------|----------------------------|
----------------------------|----------------------------|
-------------------6--5--4--|----------------------------|
--------4----------6--5--4--|--------4-------------4--2--|
-------------------4--3--2--|----------------------------|
--0--2-----0-2---0-4--3--2--|--0--2-----0-2---0-2--------|


                                  03:58                                      
  E  E  E  S S S S E  E  E     E  E     E  E  H           W                  
----------------------------|--------------------------|-------------------||
----------------------------|--------------------------|-------------------||
-------------------6--5--4--|-----4-----3--2-----------|-------------------||
--------4----------6--5--4--|-----4-----3--2-----------|-------------------||
-------------------4--3--2--|-----2-----1--0-----------|-------------------||
--0--2-----0-2---0-4--3--2--|-----2-----1--0-----------|-------------------||




Duration Legend
---------------
W - whole
H - half
Q - quarter
E - 8th
S - 16th
T - 32nd
X - 64th
. - note dotted
|-n-|  - n-tuplets


Tablature Legend
----------------
L - tied note
x - dead note
g - grace note
(n) - ghost note
> - accentuded note
NH - natural harmonic
AH - artificial harmonic
TH - tapped harmonic
SH - semi harmonic
PH - pitch harmonic
h - hammer on
p - pull off
b - bend
br - bendRelease
pb - preBend
pbr - preBendRelease
brb - bendReleaseBend
\n/ - tremolo bar dip
\n - tremolo bar dive
-/n - tremolo bar Release up
/n\ - tremolo bar inverted dip
/n - tremolo bar return
-\n - tremolo bar Release down
S - shift slide
s - legato slide
/ -  slide into from below or out of upwards
\ -  slide into from above or out of downwards
~ - vibrato
W - wide vibrato
tr - trill
TP - tremolo picking
T - tapping
S - slap
P - pop
< - fade in
^ - brush up
v - brush down





Comments


Popular Rage Against The Machine tabs & chords
Killing In The Name Bass Tabs
Freedom Drum Tabs
Guerrilla Radio Drum Tabs
Tire Me Drum Tabs
Bullet In The Head Tabs
Killin In The Name Tabs
Know Your Enemy 4 Tabs
Know Your Enemy Live Tabs
Township Rebellion 1 Tabs
War Within A Breath 1 Tabs


Song lyrics



↑ Back to top | Tablatures and chords are parodies/interpretations of the original songs. You may use it for private study, scholarship, research or language learning purposes only
© 2014 AZChords.com Contact us | Privacy policy | DMCA | Add/correct tabs | Request tabs | Top 50 tabs