» » »

Rage Against The Machine, Bomb Track Bass tabs (ver.4)

Artists:  A B C D E F G H I J K L M N O P Q R S T U V W X Y Z # 

Bomb Track Bass tabs (ver.4)

Rage Against The Machine Tabs
Rating:
4/5 (2 votes)
Bomb Track lessons Tabs too difficult? Try these video lessons and learn fast
                -------------------------------------------------------------------------------
-------------------------------------------------------------------------------


Tuning: Standard (EADG)

INTRO


G|----------------------------------------------------------------------|
D|----------------------------------------------------------------------| x 3
A|----7-5---5----------7-5---5-7-10~-----7-5---5----------7-5---5-------|
E|--0-----7---7-5-3--0-----7-----------0-----7---7-5-3--0-----7---7-3-2-|

G|----------------------------------------------------------------------|
D|----------------------------------------------------------------------|  On 4th time round
A|----7-5---5----------7-5---5-7-10~-----7-5---5------------------------|
E|--0-----7---7-5-3--0-----7-----------0-----7---7-5-3--0-0-0-0-0-0-0-0-|


CHORUS


G|--------------------------------------|
D|--------------------------------------| x 3
A|-----9---------9-7------9-------------|
E|-0-2---0-2-0-2------0-2---0-2-0-9-8-7-|

G|--------------------------------------|
D|--------------------------------------|  On 4th time round
A|-----9---------9-7------9-------------|
E|-0-2---0-2-0-2------0-2---0-2-0-9-----|


VERSE


G|----------------------------------------------|
D|----------------------------------------------|  x 3
A|-----------------0--------------9-7-------0---|
E|--2-2-0--2-2-2-2----2-2-0--2-0------9-8-7-----|

G|-----------------------------------------------|
D|-----------------------------------------------|  On 4th time round
A|-----------------0-----------------------------| 
E|--2-2-0--2-2-2-2----2-2-0--2-2-x-x-x-x-x-x-x-x-|


PRE-BRIDGE BIT


G|-----------------------------------------------------------------|
D|-----------------------------------------------------------------|
A|-----------------------------------------------------------------|
E|-0-0-0-0-0-0-0-0-0-0-0-0-0-0-0-0-0-0-0-0-0-0-0-0-0-0-0-0-0-0-0-0-|


BRIDGE/GUITAR SOLO


G|---------------------------------------------------------------|
D|---------------------------------------------------------------|
A|----------0-----------------------------0------------0---0---0-|
E|--2p0-2p0----2p0-2p0-2-X-X-X-X--2p0-2p0----2p0-2p0-9---8---7---|


OUTRO


G|--------------------------------------|
D|--------------------------------------| x 3
A|-----9---------9-7------9-------------|
E|-0-2---0-2-0-2------0-2---0-2-0-9-8-7-|

G|---------------------------------------------|
D|---------------------------------------------| x 3
A|-----9---------9-7------9--------------------|
E|-0-2---0-2-0-2------0-2---0-2-0-9-8-7--7-6-5-|


ORDER:

Intro   x 1
Chorus  x 1
Verse   x 2
Chorus  x 1
Verse   x 1
Chorus  x 1
Pre-Bridge Bit      x 1
Bridge/Guitar Solo  x 4
Outro   x 1



| /  slide up
| \  slide down
| h  hammer-on
| p  pull-off
| ~  vibrato
| +  harmonic
| x  Mute note

===============================================================================
            

comments powered by Disqus
↑ Back to top | Rage Against The Machine Bass for Bomb Track. Lyrics for acoustic guitar and electric guitar. Tablatures and chords are parodies/interpretations of the original songs. You may use it for private study, scholarship, research or language learning purposes only