» » »

Rage Against The Machine, Bomb Track Tabs (ver.4)

Artists:  A B C D E F G H I J K L M N O P Q R S T U V W X Y Z # 

Bomb Track Tabs (ver.4)

Rage Against The Machine Tabs
Rating:
4/5 (6 votes)
Bomb Track lessons Tabs too difficult? Try these video lessons and learn fast
                leave out a few of the fills but I want you all to get the basics right from the source. 
Enjoy
                           Intro
e|---------------------------------------------------------
B|---------------------------------------------------------
G|----------------------------0----------------------------
D|--2-0---0---------2-0---0-2----2-0--0-------2-0----------
A|------2---2-0---------2-----------2--2-0--------2--------
E|0-------------3-0------------0-----------3-0------3-2----

----------------------------------------------------------|
----------------------------------------------------------|
-----------------------------0h2p0------------------------|
---2-0---0---------2-0---0-2------------------------------|
-------2---2-0---------2----------------------------------|
-0-------------3-0----------------------------------------|

                     Riff A

e|-------------------------------------------------------|
B|-------------------------------------------------------|
G|-----------------------------------6---5---4-----------|
D|-----4----------4-2-----4----------6---5---4-----------|
A|-----------------------------------4---3---2-----------|
E|-0-2---0-2--0-2-----0-2---0-2---0--4---3---2-----------|


                      Verse  Riff B
e|-------------------------------------------------------|
B|-------------------------------------------------------|
G|-------------------------------------------------------|
D|-----------------------------------------4--2----------|
A|----------------------------------------------4--3--2--|
E|-2--2--0--2--2---2---2--5^--2--2--0--2-0--------------5|
                          ^
                      pull up 1/2 

              Interlude     Riff C

e|--------------------------------------------------------|
B|--------------------------------------------------------|
G|------------------------xxx-----------------------------|
D|------------------------xxx-----------------------------|
A|------------------------xxx------------------4p0-3p0-2p0|
E|2p0-2p0-5^-2p0-2p0-2p0-2---2p0-2p0-5^-2p0-2p0-----------|

                          
                        SOLO
e|--------------------------------------------------------|
B|--------16------------------16-14-17^^-17-17-17--^^17---|
G|-x-14-x-16-x-14-x-16-x-14-x-16--------------------------|
D|-x-14-x-16-x-14-x-16-x-14-x-16--------------------------|
A|--------------------------------------------------------|
E|--------------------------------------------------------|
                                     ^^bend full step

e|----------------------x/14-17-16-17-16^~----------------|
B|--------16----------------------------------------------|
G|-x-14-x-16-x-14-x-16\-----------------------------------|
D|-x-14-x-16-x-14-x-16\-----------------------------------|
A|--------------------------------------------------------|
E|--------------------------------------------------------|

e|--------------------------------------------------------|
B|-17--17-----17--17--17--17\-----------------------------|
G|-16^-16^----16^-16^-16^-16\--(x\x/x\x/x\x/x\x/x\x/x\x/x)|
D|--------------------------------------------------------|
A|----------------------------x---------------------------|
E|--------------------------------------------------------|
Morello uses the pickup switch technique above, I use a pick slide technique with a 
palm mute that gets pretty close, just try it by ear and do what works for you. I can send
you the exact method info if you want.

e|--------------------------------------------------------|
B|--------------------------------------------------------|
G|-14-14-14--14-14-14--14-14-14--14-14-14-----------------|
D|---------16--------16--------16--------16---------------|
A|--------------------------------------------------------|
E|--------------------------------------------------------|

e|--------------------------------------------------------|
B|--------------------------------------------------------|
G|-14-14-14--14-14-14----------6-5-4-----4-3-2------------|
D|---------16---------16-------6-5-4-----4-3-2------------|
A|-------------------------x\--4-3-2-----2-1-0------------|
E|-------------------------x\0-4-3-2-----2-1--------------|

That about it short of a few fills and a few over dubbing nuances. I hope this 
clears up some curiousity about a few parts guys

==========================================================
            

comments powered by Disqus
↑ Back to top | Rage Against The Machine Tabs for Bomb Track. Lyrics for acoustic guitar and electric guitar. Tablatures and chords are parodies/interpretations of the original songs. You may use it for private study, scholarship, research or language learning purposes only