» » »

Rage Against The Machine, Beautiful World Tabs (ver.2)

Artists:  A B C D E F G H I J K L M N O P Q R S T U V W X Y Z # 

Beautiful World Tabs (ver.2)

Rage Against The Machine Tabs
 Rating:
4.6/5 (11 votes)
Beautiful World lessons Tabs too difficult? Try these video lessons and learn fast
1
                -------------------------------------------------------------------------------
                  Beautiful World - Rage Against The Machine
-------------------------------------------------------------------------------

Tuning:1e 2B 3G 4D 5A 6E

Intro
e|--------------------------------------------------------------------------|
B|-11111-33333-11111-33333--------------------------------------------------|
G|-22222-44444-22222-44444--------------------------------------------------|
D|-22222-55555-33333-55555--------------------------------------------------|
A|-0------------------------------------------------------------------------|
E|--------------------------------------------------------------------------|

e|--------------------------------------------------------------------------|
B|-11111-33333-11111-33333--------------------------------------------------|
G|-22222-44444-22222-44444--------------------------------------------------|
D|-22222-55555-33333-55555--------------------------------------------------|
A|-0------------------------------------------------------------------------|
E|--------------------------------------------------------------------------|

Verse
e|---------------------------------------------------------------------------|
B|-11111-33333-11111-33333---------------------------------------------------|
G|-22222-44444-22222-44444---------------------------------------------------|
D|-22222-55555-33333-55555---------------------------------------------------|
A|-0-------------------------------------------------------------------------|
E|---------------------------------------------------------------------------|

e|--------------------------------------------------------------------------|
B|-11111-33333-11110-00000--------------------------------------------------|
G|-22222-44444-22220-22220--------------------------------------------------|
D|-22222-55555-33330-22220--------------------------------------------------|
A|-0------------------------------------------------------------------------|
E|--------------------------------------------------------------------------|

Chorus
e|-------------------1111---------------------------------------------------|
B|-11111-33330-11110-11110--------------------------------------------------|
G|-22222-44440-22220-22220--------------------------------------------------|
D|-22222-55550-22220-33330--------------------------------------------------|
A|-------------0------------------------------------------------------------|
E|--------------------------------------------------------------------------|

Bridge
e|-0000--3------------------------------------------------------------------|
B|-11110-3-----11111-33333-11111--------------------------------------------|
G|-00000-4-----22222-44444-22222--------------------------------------------|
D|-22220-5-----22222-55555-33333--------------------------------------------|
A|-3-----------0------------------------------------------------------------|
E|--------------------------------------------------------------------------|

e|--------------------------------------------------------------------------|
B|-33333-11111-33333-11111--------------------------------------------------|
G|-44444-22222-44444-22222--------------------------------------------------|
D|-55555-22222-55555-33333--------------------------------------------------|
A|-------0------------------------------------------------------------------|
E|--------------------------------------------------------------------------|

e|--------------------------------------------------------------------------|
B|-33333-11111-33333-11110--------------------------------------------------|
G|-44444-22222-44444-22220--------------------------------------------------|
D|-55555-22222-55555-33330--------------------------------------------------|
A|-------0------------------------------------------------------------------|
E|--------------------------------------------------------------------------|

Chorus
e|--------------------------------------------------------------------------|
B|-00000-11111-33330-11110--------------------------------------------------|
G|-22220-22222-44440-22220--------------------------------------------------|
D|-22220-22222-55550-22220--------------------------------------------------|
A|-------------------0------------------------------------------------------|
E|--------------------------------------------------------------------------|

Ending
e|-1111--0000--3-----11111-33333--------------------------------------------|
B|-11110-11110-3-----22222-44444--------------------------------------------|
G|-22220-00000-4-----22222-55555--------------------------------------------|
D|-33330-22220-------0------------------------------------------------------|
A|-------3------------------------------------------------------------------|
E|--------------------------------------------------------------------------|

e|--------------------------------------------------------------------------|
B|-11111-33333-11111-33333--------------------------------------------------|
G|-22222-44444-22222-44444--------------------------------------------------|
D|-33333-55555-22222-55555--------------------------------------------------|
A|-------------0------------------------------------------------------------|
E|--------------------------------------------------------------------------|

e|--------------------------------------------------------------------------|
B|-11111-33333-11111-33333--------------------------------------------------|
G|-22222-44444-22222-44444--------------------------------------------------|
D|-33333-55555-22222-55555--------------------------------------------------|
A|-------------0------------------------------------------------------------|
E|--------------------------------------------------------------------------|

e|--------------------------------------------------------------------------|
B|-11111-33333-1------------------------------------------------------------|
G|-22222-44444-2------------------------------------------------------------|
D|-33333-55555-2------------------------------------------------------------|
A|-------------0------------------------------------------------------------|
E|--------------------------------------------------------------------------|

===============================================================================
            
Submit corrections

comments powered by Disqus
↑ Back to top | Rage Against The Machine Tabs for Beautiful World. Lyrics for acoustic guitar and electric guitar. 1 Tablatures and chords are parodies/interpretations of the original songs. You may use it for private study, scholarship, research or language learning purposes only