>
 >
Voice From The Vault

Voice From The Vault Guitar Tabs

Rage - Voice From The Vault chords, tabs, tablatures, lyrics

Guitar lessons | Add/correct | Request | Top 50 tabs Artists:  A B C D E F G H I J K L M N O P Q R S T U V W X Y Z 0-9

Voice From The Vault Guitar Tabs – Rage

CD, Sheet music, Poster

Do you like Voice From The Vault? Share with your friends now
Tabs
R A G E   "Voice From The Vault"
			Music by P.Wagner, S.Efthimiadis, C.Efthimiadis
			Lyrics by P.Wagner
		(from the album "End Of All Days")


	Sorry for any mistakes, my guitar tune is 1/2 step down, so
	I had to transpose the whole song. This is "normal" version.

 P.M. or PM - palm mute      ^V^V^ - wide vibrato with bar     ^ - bend
 ; - pause                   8^9tr - trill                     ^^^ - slow
bend
 ~ - vibrato                 /\ - bend with reverse            > - accent
 fdbk - feedback              - harmonic (art. or natur.)  * - see
comment
 / - slide up                \ - slide down
 (7) - drowned note OR do not pick

 Intro: clean tone, let ring.

     Riff A
      1 & 2 & 3 & 4 &   1 & 2 & 3 & 4 &   1 & 2 & 3 & 4 &   1 & 2 & 3 & 4 &

e:-|-----0-----------|-----0-----------|-----0-----------|-----0-----------|

b:-|-------0---------|-------0---------|-------0---------|-------0---------|

g:-|---------3-------|---------3-------|---------3-------|---------3-------|

d:-|-----------------|-----------------|-----------------|-----------------|

A:-|---------------1-|-----------------|-----------------|-----------------|

E:-|-0---------------|---------------3-|---------------2-|---------------0-|

"R-r-
                                                                  end Riff A
      1 & 2 & 3 & 4 &   1 & 2 & 3 & 4 &   1 & 2 & 3 & 4 &   1 & 2 & 3 & 4 &

e:-|-----0-----------|-----0-----------|-----0-----------|-----0-----------|

b:-|-------0---------|-------0---------|-------0---------|-------0---------|

g:-|---------3-------|---------3-------|---------3-------|---------3*------|

d:-|-----------------|-----------------|-----------------|-----------------|

A:-|---------------1-|-----------------|-----------------|-----------------|

E:-|-----------------|---------------3-|---------------2-|---------------0-|
     -a-h!"                                   Riff A ends with this (*)
note!

      1 & 2 & 3 & 4 &   1 & 2 & 3 & 4 &  1 & 2 & 3 & 4&  1 & 2 & 3 & 4 &
1234

e:-|-----0-----------|-----0-----------|----0----------|----0-----------|---
-|

b:-|-------0---------|-------0---------|------0--------|------0---------|---
-|

g:-|---------3-------|---------3-------|--------3------|--------3-------|---
-|

d:-|-----------------|-----------------|---------------|-------------(2)|(2)
-|

A:-|---------------1-|-----------------|---------------|-------------(2)|(2)
-|

E:-|-----------------|---------------3-|-------------2-|------------2-0-|(0)
-|
								     Long note
 With distortion:
     Riff B                                                       end Riff B

e:-|-----------------|-----------------|-----------------|-----------------|

b:-|-----------------|-----------------|-----------------|-----------------|

g:-|-----------------|-----------------|-----------------|-----------------|

d:-|-8-8-8-8-9-9-9-9-|-8-8-8-8-9-9-9-9-|-7-7-7-7-8-8-8-8-|-7-7-7-7-8-8-8-8-|

A:-|-6-6-6-6-6-6-6-6-|-6-6-6-6-6-6-6-6-|-6-6-6-6-6-6-6-6-|-6-6-6-6-6-6-6-6-|

E:-|-----------------|-----------------|-----------------|-----------------|
              P.M.....          P.M.....          P.M.....          P.M.....
 Vocal: (In a dark and spooky graveyard    there he's waiting in the
deep...)
 (when Verse starts - see below)

 Play Riff B 4 times, then Verse starts:

	Verse (with Riff B 4 times, but 3rd time substitute by Riff B1):
		In a dark and spooky graveyard,
		there he's waiting in the deep
		for the day when he will wake up
		from hes godless deadlike sleep.

		Since a while she heard these voices,
		calling in her sleep at nights,
		telling her she has to return
		to become his mouldering wife. (to Pre-chorus)

 Riff B1							 end Riff B1

e:-|-----------------|-----------------|-----------------|-----------------|

b:-|-----------------|-----------------|-----------------|-----------*-----|

g:-|-----------------|-----------------|-----------------|-----------/\----|

d:-|-8-8-8-8-9-9-9-9-|-8-8-8-8-9-9-9-9-|-7-7-7-7-8-8-8-8-|-7-7-7-7-8-8-7---|

A:-|-6-6-6-6-6-6-6-6-|-6-6-6-6-6-6-6-6-|-6-6-6-6-6-6-6-6-|-6-6-6-6-6-----9-|

E:-|-----------------|-----------------|-----------------|-----------------|
              P.M.....          P.M.....          P.M.....
    * - 1/2 tone bend with reverse

 Pre-chorus with Riff A (twice), distorted guitar plays chords (Riff A1):
 [ E5    A#5  G5                    F#5 ] - (Approximately)
		Soon will come what she has told,
		She cannot longer resist his call.
 To be honest, Riff A1 is not played by the guitar, it is bass with
distortion.
 But you can play it by guitar.

 Chorus: clean guitar continues to play something simile to Riff A (I can't
 tab it), while distorted guitar playes Chorus Riff. I tabbed it
approximately,
 I can't catch it correctly. Every first 3 bars I placed only accented
chords.
    1 & 2 & 3 & 4 &   1 & 2 & 3 & 4 &   1 & 2 & 3 & 4 &   1 & 2 & 3 & 4 &
 e:-----------------|-----------------|-----------------|-----------------|
 b:-----------------|-----------------|-----------------|-----------------|
 g:-----------------|-----------------|-----------------|-----------------|
 d:-2-----2-----2---|-7-----7-----7---|-5-----5-----5---|-4---4---4---4---|
 A:-2-----2-----2---|-7-----7-----7---|-5-----5-----5---|-4---4---4---4---|
 E:-0-----0-----0---|-5-----5-----5---|-3-----3-----3---|-2---2---2---2---|
                                                         P.M..............
    O  -  o  -  oh,  mid - night  and  she's all    a  - lone

    1 & 2 & 3 & 4 &   1 & 2 & 3 & 4 &   1 & 2 & 3 & 4 &   1 & 2 & 3 & 4 &
 e:-----------------|-----------------|-----------------|-----------------|
 b:-----------------|-----------------|-----------------|-----------------|
 g:-----------------|-----------------|-----------------|-----------------|
 d:-2-----2-----2---|-7-----7-----7---|-5-----5-----5---|--------(4-4-4-4)|
 A:-2-----2-----2---|-7-----7-----7---|-5-----5-----5---|-3-4-3-4-4-4-4-4-|
 E:-0-----0-----0---|-5-----5-----5---|-3-----3-----3---|-2-2-2-2-2-2-2-2-|
                                                       P.M........
    A  - mong  the  graves where it's   so   dark   and  cold

    1 & 2 & 3 & 4 &   1 & 2 & 3 & 4 &   1 & 2 & 3 & 4 &   1 & 2 & 3 & 4 &
 e:-----------------|-----------------|-----------------|-----------------|
 b:-----------------|-----------------|-----------------|-----------------|
 g:-----------------|-----------------|-----------------|-----------------|
 d:-2-----2-----2---|-7-----7-----7---|-5---------------|-4-;-------------|
 A:-2-----2-----2---|-7-----7-----7---|-5---------------|-4-;-------------|
 E:-0-----0-----0---|-5-----5-----5---|-3---------------|-2-;-------------|
							 (P.M.) - Ad lib
    O  -  o  -  oh, she's heard  his    in - fer - nal   voice from the...
 (Riff B starts)
 ...vault.  |
            V
 Play Riff B 4 times, then comes Verse 2 (w/Riffs B and B1 - simile)

		Long ago when they were younger
		the were married, lucky times.
		But then clouds locked the horizon,
		a martyrium for his life.
		The she's got this evil plan, she
		put the poison in his tea.
		And he passed away, real slowly,
		no one noticed, she was free.

 Repeat Pre-Chorus and Chorus. Then comes the solo (the word "vault" is
spoken
 not with Riff B, but with Riff A).

 Solo (with Riffs A and A1 - 4 times):
    1 & 2 & 3 & 4 &     1 & 2 & 3 & 4 &   1 & 2 & 3 & 4 &   1 & 2 & 3 & 4 &

e:-----------------|-------------------|-----------------|-----------------|

b:-----------------|-------------------|-----------------|-----------------|

g:-7~----9~----10~-|10/13~---12~---10~-|-7~----9~----10~-|-7~--------------|

d:-----------------|-------------------|-----------------|-------6^7tr-----|

A:-----------------|-------------------|-----------------|-------------9~--|

E:-----------------|-------------------|-----------------|-----------------|

    1 & 2 & 3 & 4 &    1 & 2 & 3 & 4 &   1 & 2 & 3 & 4 &   1 & 2 & 3 & 4 &
 e:-----------------|-/8~--------------|-----------------|-----------------|
 b:-----------------|--------10~---9~--|-8~----9~--------|--*----**--------|
 g:-7~----9~----10~-|------------------|-------------9~--|-10^^^-^V^V^-|
 d:-----------------|------------------|-----------------|--fdbk-----wide--|
 A:-----------------|------------------|-----------------|---------vibrato-|
 E:-----------------|------------------|-----------------|--------with-bar-|
   * - Slow bend 1/2 tone         |----- *** -----|
  ** - I'm not sure, but I think it's artificial harmonic on 10th fret.
 *** - Seemes, like these notes are slight harmonized...

 The second part of solo consists all of artificial harmonic bends and
feedback
 effects, I didn't tabbed it, yet. Sorry.

 Then goes Interlude. Here I'm also not sure about Tab, but that's all I
could
 transcribe. Guitar is clean tone, let ring.
                                Interlude Riff----------------------------|
    1&2&3&4&  1 & 2 & 3 & 4 &    1 & 2 & 3 & 4 &   1 & 2 & 3 & 4 & 5 & 6 &

e:---------|-----------------||-----------------|-----------1)------------||

b:---------|-----------------||-----------------|---3------3)-------------||

g:---------|-----------------||-------2-----3---|---------2)*-------------||

d:(2)------|---------------2-||-3-------2-3---2-|-3---2-3---------------2-||

A:(2)------|-----------------||---5-------------|-------------------------||

E:(0)------|-----------------||-----------------|-------------------------||
                            >      >   >     >       >     >   * - sweep

 Interlude Riff is played totally 7 times, but the last time it is drowned
 the risin' volume heavy riff of distorted guitar (see below).
   During the interlude words are spoken, approximately one sentence on each
 repeat of the Interlude Riff, beginning with the 2nd repeat and ending on
6th.
		"The truth, give me the truth!
		 You've killed me, and I want you to pay.
		 You've promised to be mine and I want you now.
		 I will make you follow!"

 Distorted guitar enters:
   Play 3 times--------|  1 & 2 & 3 & 4 &   1 & 2 & 3 & 4     &
 e:---------------------|-----------------|----------------------|
 b:---------------------|-----------------|----------------------|
 g:---------------------|-----------------|----------------------|
 d:---------------------|-----9-----7-----|-5-----7-----9\(7)\5\-|
 A:-5-5-5-5-5-5-5-5-5-5-|-5-5-9-9-9-7-7-7-|-5-5-5-7-7-7-9\(7)\5\-|
 E:-3-3-3-3-3-3-3-3-3-3-|-3-3-7-7-7-5-5-5-|-3-3-3-5-5-5-7\(5)\3\-|
   P.M....................... > PM. > PM.   > PM. > PM.

 Play Riff B ONCE ! -> To Verse 3 (with Riffs B and B1):
		Now he took hold of her mind,
		he's possessing her complete.
		She's no longer self-controlled,
		and he is moving her feet.
		Lay her body then to rest,
		covers her with his caress.
		And the ground is broken up
		when the new born mourning comes.

 Pre-chorus:
		Now has come what she was told,
		She couldn't longer resist his call.

 Chorus:
		Oh, midnight and she's all alone
		among the graves where's so dark and cold.
		Oh, she's heard his infernal voice from the vault.

			FIN.

 The last word "vault" is spoken in silence, no instruments sound.

 If you know, how to play this song better, if you know how to play other
 RAGE songs, also how to play any songs from DEMONS & WIZARDS, GRAVE DIGGER,
 or the BG's album "Nightfall in the Middle-Earth", please e-mail me !





Comments


Popular Rage tabs & chords
In Vain Bass Tabs
Price Of War Bass Tabs
Alive But Dead Intro Tabs
Days Of December Tabs
End Of All Days Tabs
Freedom Tabs
Incomplete Tabs
Insanity Tabs
Not Forever Tabs
South Cross Union Tabs


Song lyrics



↑ Back to top | Tablatures and chords are parodies/interpretations of the original songs. You may use it for private study, scholarship, research or language learning purposes only
© 2014 AZChords.com Contact us | Privacy policy | DMCA | Add/correct tabs | Request tabs | Top 50 tabs