» » »

Refuge Tabs (ver.1)

Artists:  A B C D E F G H I J K L M N O P Q R S T U V W X Y Z # 

Refuge Tabs (ver.1)

Rage
Rating:
0/5 (0 votes)

Hard to play? Try these video lessons and learn fast.
                join the death/black metal tab mailing list by emailing 
        

"Refuge"

tune all strings down 1 step (I think!)


INTRO

   H P P               H P P
-------------------|-------------------|
-------------------|-------------------|
-------------------|------------2------|
-4-5-4-2-----------|-4-5-4-2------5----|
---------2-5-2--2--|---------2-------2-|
-------------------|-------------------|

VERSE (note: strum the high chord from the high string down)

----------|----0----|---------|----0----|
----------|----2----|---------|----2----|
----2-----|----2----|----2----|----2----|
----2-----|----2----|----2----|----2----|
----0-----|---------|----0----|---------|
----------|---------|---------|---------|

PRE-CHORUS

-----------------------------|-----------------------------|-----------------------------|----------------------------|
-----------------------------|-----------------------------|-----------------------------|----------------------------|
-7---------7-----------------|-7---------7-----------------|-4---------4-----------------|-4---------4----------------|
-7---------7-----------------|-7---------7-----------------|-4---------4-----------------|-4---------4----------------|
-5-5-5-5-5-5-5-5-5-5-5-5-5-5-|-5-5-5-5-5-5-5-5-5-5-5-5-5-5-|-2-2-2-2-2-2-2-2-2-2-2-2-2-2-|-2-2-2-2-2-2-2-2-2-2-2-2-2-2|
-----------------------------|-----------------------------|-----------------------------|----------------------------|


---------|-----------|---------------|
---------|-----------|---------------|
----2----|---4---2---|---------------|
----2----|---4---2---|---5--4--5--7--|
----0----|---2---0---|---5--4--5--7--|
---------|-----------|---3--2--3--5--|

CHORUS

--------|--------|--------|--------------|
--------|--------|--------|--------------|
--7--9--|--4--2--|--4--2--|--------------|
--7--9--|--4--2--|--4--2--|--5--4--5--7--|
--5--7--|--2--0--|--2--0--|--5--4--5--7--|
--------|--------|--------|--3--2--3--5--|

SOLO (note: first three notes are lead in from last beat of chorus)

solo riff 1 (play twice to double bar)                                     
--------|---------------|-------------------|----------------|---------------------||
--------|---------------|-------------------|----------------|---------------------||
--------|-------------4-|--7--6--4----------|----------------|-------------4--5--7-||
-4-5-7--|----4--5--7----|--7--7--5--7--5--4-|-5-----5--4-----|-4--2----------------||
--------|-5-------------|-------------------|----2--------2--|-------0-------------||
--------|---------------|-------------------|----------------|----------3----------||

solo riff 2 (play twice to double bar)
-------------------------------------|----------------|---------------------------------------------|-----------------|
-8-10-8-7-8-10-8-7-8-10-8-7-8-10-8-7-|-10-8-7---------|-10-12-10-8-10-12-10-8-10-12-10-8-10-12-10-8-|-12-10-8---------|
-------------------------------------|---------9-7-6--|---------------------------------------------|---------11-9-7--|
-------------------------------------|----------------|---------------------------------------------|-----------------|
-------------------------------------|----------------|---------------------------------------------|-----------------|
-------------------------------------|----------------|---------------------------------------------|-----------------|


------------------------------------------------|-----------------------------10-12-14-15-14-12-14-15-14-12----||
12-13-12-10-12-13-12-10-12-13-12-10-12-13-12-10-|-13-12-10-----------------10----------------------------------||
------------------------------------------------|----------12-11-9----9-11----------------------------------14-||
------------------------------------------------|------------------12------------------------------------------||
------------------------------------------------|--------------------------------------------------------------||
------------------------------------------------|--------------------------------------------------------------||

CLEAN PART

play three times to double bar + first ending and once + second ending
                                                                                first ending             second ending
-------2------------3-----|--------------------------|------------------------||-------------3---------||------------||
----2-----3------------2--|-------3------------0-----|-------3-----------2----||----------------3------||------------||
-----------------0--------|----------0------------0--|----------0-----------2-||----------0--------0---||------------||
-0------------2-----------|----0---------------------|----0-----------2-------||-------0-------------0-||-5--4--5--7-||
--------------------------|-2---------------2--------|-2-----------0----------||----2------------------||-5--4--5--7-||
--------------------------|--------------3-----------|------------------------||-3---------------------||-3--2--3--5-||

                                                                                                                  hold
--------|--------|-----------------|------------------|--------|--------|-----------------|------|------|------|------|
--------|--------|-----------------|------------------|--------|--------|-----------------|------|------|------|------|
--7--9--|--4-----|-----------------|------------------|--7--9--|--4-----|-----------------|-7--9-|-4--3-|-4--2-|------|
--7--9--|--4--5--|-7-5-4-5---5-4---|-4-2------4--5--7-|--7--9--|--4--5--|-7-5-4-5---5-4---|-7--9-|-4--3-|-4--2-|--5---|
--5--7--|--2--5--|---------2-----2-|-----0----4--5--7-|--5--7--|--2--5--|---------2-----2-|-5--7-|-2--5-|-2--0-|--5---|
--------|-----3--|-----------------|-------3--2--3--5-|--------|-----3--|-----------------|------|------|------|--3---|


SONG ORDER

intro 4X
verse
intro 2X
verse
pre-chorus
chorus 2X
intro 1X
verse
intro 2X
verse
intro 2X
pre-chorus
chorus 2X
solo
intro 1X
pre-chorus
clean part
chorus (do not repeat)
            
Hard to play? Try these video lessons and learn fast. | Correct




comments powered by Disqus
↑ Back to top | Tablatures and chords are parodies/interpretations of the original songs. You may use it for private study, scholarship, research or language learning purposes only