>
 >
Raw Caress

Raw Caress Guitar Tabs

Rage - Raw Caress chords, tabs, tablatures, lyrics

Guitar lessons | Add/correct | Request | Top 50 tabs Artists:  A B C D E F G H I J K L M N O P Q R S T U V W X Y Z 0-9

Raw Caress Guitar Tabs – Rage

CD, Sheet music, Poster

Do you like Raw Caress? Share with your friends now
Tabs
RAGE - "Raw Caress" from the album THE MISSING LINK


LEGEND:

b  : bend
r  : release
s  : slide
h  : hammer on
p  : pull off
() : implied note(s) created in bend, slide, or whammy or hold

TUNE ALL STRINGS DOWN 1 STEP (DGCFAD)


INTRO                                   SEGUE
                          play 4 times
--------------------|-----------------||---------|---------||
--------------------|-----------------||---------|---------||
--------------------|-----------------||---------|---------||
----9-----7---------|-5---------------||---------|---------||
-10---10--9--9--9-9-|-7--7--9--9------||----9----|-------5-||
--------------------|-------7--7--7-7-||-5--7--5-|-(5)-4-3-||



VERSE

---------0-----|---------0-----|----------------|---------0-----|
----3------3---|----3------3---|----------3-----|----3------3---|
------2------2-|------2------2-|----4-------4---|------2------2-|
-0-------------|---------------|------4-------4-|---------------|
---------------|-4-------------|-2--------------|-0-------------|
---------------|---------------|----------------|---------------|


---------0-----|---------0-----|----------2-----|---------2-----||
----3------3---|----3------3---|----5-------5---|----5------5---||
------2------2-|------2------2-|------4-------4-|------4------4-||
---------------|---------------|-2--------------|-2-------------||
---------------|---------------|----------------|---------------||
-3-------------|-2-------------|----------------|---------------||



PRE CHORUS

------|-----|-------|-----|------|-----|
------|-----|-------|-----|------|-----|
------|-----|-------|-----|------|-----|
-4--2-|--4--|--4--2-|--4--|-5--4-|--2--|
-5--4-|--2--|--5--4-|--2--|-7--5-|--4--|
------|-----|-------|-----|------|-----|


---------------------------|---------------------------|
---------------------------|---------------------------|
---------------------------|---------------------------|
--------------5--5-------5-|--------------5--5-------5-|
-3-3-3-3-3-3--3--3--3-3--3-|-3-3-3-3-3-3--3--3--3-3--3-|
---------------------------|---------------------------|

------|-----|-------|-----|------|-----||
------|-----|-------|-----|------|-----||
------|-----|-------|-----|------|-----||
-4--2-|--4--|--4--2-|--4--|-5--4-|--2--||
-5--4-|--2--|--5--4-|--2--|-7--5-|--4--||
------|-----|-------|-----|------|-----||


CHORUS

-------|-------|-------|-----|
-------|-------|-------|-----|
-------|-------|-------|-----|
-9---7-|-9---7-|-5---4-|--4--|
-10--9-|-10--9-|-7---5-|--2--|
-------|-------|-------|-----|


SOLO LICK 1

 ----b          p     p    ----b          p      p                  ----b
-14-(15)-14--17-15-------|-------------17-15--------|-14-(15)-14----17-(19)-||
-15-(17)-15--------16-14-|-15-(17)-15---------16-14-|-15-(17)-15------------||
-------------------------|--------------------------|------------16---------||
-------------------------|--------------------------|-----------------------||
-------------------------|--------------------------|-----------------------||
-------------------------|--------------------------|-----------------------||


BRIDGE 1

-------|-------|-------|-------|-------|---------|---------||
-------|-------|-------|-------|-------|---------|---------||
-------|-------|-------|-------|-------|---------|---------||
-------|-------|-4---4-|-7---7-|-------|---------|---------||
-5---5-|-4---4-|-2---2-|-5---5-|-5---5-|-4-4-4-4-|-4-4-4-4-||
-3---3-|-2---2-|-------|-------|-3---3-|-2-2-2-2-|-2-2-2-2-||


BRIDGE 2

---------|---------|---------|---------|---------|---------|---------||
---------|---------|---------|---------|---------|---------|---------||
---------|---------|---------|---------|---------|---------|---------||
---------|---------|-4-4-4-4-|-7-7-7-7-|---------|---------|---------||
-5-5-5-5-|-4-4-4-4-|-2-2-2-2-|-5-5-5-5-|-5-5-5-5-|-4-4-4-4-|-4-4-4-4-||
-3-3-3-3-|-2-2-2-2-|---------|---------|-3-3-3-3-|-2-2-2-2-|-2-2-2-2-||



SOLO
                          ----r         ----r             ----b
-----------|-----------|-------------|---------|---------(12)-14-|
-----12----|-----12-14-|-(15)-14--12-|-(14)-12-|-----12----------|
-12-----12-|-11--------|-------------|---------|-12--------------|
-----------|-----------|-------------|---------|-----------------|
-----------|-----------|-------------|---------|-----------------|
-----------|-----------|-------------|---------|-----------------|

                                        (two guitars)
                                                 ----r         ----r
--12--|-(12)-10-------|-----------|-----10-12-|-(14)-12--10-|-(12)-10-|
------|---------14-12-|-----12----|-----12-14-|-(15)-14--12-|-(14)-12-|
------|---------------|-12-----12-|-11--------|-------------|---------|
------|---------------|-----------|-----------|-------------|---------|
------|---------------|-----------|-----------|-------------|---------|
------|---------------|-----------|-----------|-------------|---------|

         ----b
-----13-(17)-19-|--19--|-(19)-|-12-13----13-|----13-12-13-|----13----13-|
-14--14---------|------|------|-------14----|-13----------|-14----13----|
-15-----(14)-16-|--16--|-(16)-|-9--10----10-|----10-9--10-|----10----10-|
----------------|------|------|-------11----|-10----------|-11----10----|
----------------|------|------|-------------|-------------|-------------|
----------------|------|------|-------------|-------------|-------------|

  ----b---r                                             ----b
-(15)-17-(15)-13-|-12-13----13-|----13-12-13-|----13-16-18-(20)-|-(20)-||
-----------------|-------14----|-13----------|-14-------11-(13)-|-(13)-||
-(12)-14-(12)-10-|-9--10----10-|----10-9--10-|----10-13---------|------||
-----------------|-------11----|-10----------|-11---------------|------||
-----------------|-------------|-------------|------------------|------||
-----------------|-------------|-------------|------------------|------||


SONG ORDER

INTRO W/ SEGUE (2 times)
VERSE (2 times)
INTRO W/ SEGUE (2 times)
VERSE (2 times)
PRECHORUS (2 times)
CHORUS (3 times)
VERSE (2 times w| distortion)
PRECHORUS (2 times)
CHORUS (3 times)
BRIDGE 1 (4 times, play last chord a lot of times!)
BRIDGE 2 (2 times)
INTRO W/O SEGUE (1 time)
PRECHORUS (2 times)
CHORUS (4 times)





Comments


Popular Rage tabs & chords
From The Cradle To The Grave Bass Tabs
Turn The Page 2 Bass Tabs
Vertigo 2 Bass Tabs
Certain Days Tabs
Days Of December Tabs
Desperation Tabs
Incomplete Tabs
Nevermore Tabs
Straight To Hell Intro Tabs
Voice From The Vault Tabs


Song lyrics



↑ Back to top | Tablatures and chords are parodies/interpretations of the original songs. You may use it for private study, scholarship, research or language learning purposes only
© 2014 AZChords.com Contact us | Privacy policy | DMCA | Add/correct tabs | Request tabs | Top 50 tabs