» » »

Rage, Lost In The Ice Tabs (ver.1)

Artists:  A B C D E F G H I J K L M N O P Q R S T U V W X Y Z # 

Lost In The Ice Tabs (ver.1)

Rage Tabs
 Rating:
4/5 (4 votes)
Lost In The Ice lessons Tabs too difficult? Try these video lessons and learn fast
                Artist : Rage 

If Peavy somehow happens to read this, you're my hero, and that you should
change back to Execution days, because it's the best Rage and thrash metal album ever!

Well here it is, an almost complete tab of one of Rage's finest songs, 
Lost in the Ice. If anyone wants to tab the fast half of the solo, be my guest.

Tune down half a step on every string, or one fret.

Opening Riff
E  -----------------------------------------------------------------------------------------
B  -----------------------------------------------------------------------------------------
G  --------0-------------0-----------0-------0----------0---------0------------------------
D  ------4------------4------------4-------4---------0---------2--------0------------------
A  ----2-----------3------------4--------3--------1---------3--------2---------------------
E  --0----------0------------0---------0---------------------------------------------------

"An antarctic land, deadly unknown"  play this twice

E  -----------------------------------------------------------------------------------------------
B  ---------------0---------------------0----------------------0---------------------------------
G  -----------0-----0---------------0------0---------------0-----0-----------0---------0-------
D  --------4-----------4---------4------------4---------4-----------4-----0---------2--------0-
A  -----2---------------------3----------------------4------------------1---------3---------2---
E  --0---------------------0----------------------0----------------------------------------------


"And on the highest Ridge"

E  ----------------0----------------------0----------------------0-------------------5-----------
B  ------------0------0---------------0------0---------------0-----0------------4------4--------
G  --------4-------------4--------4-------------4--------5------------5-----5------------5------
D  -----2----------------------3----------------------4-------------------3-----------------3----
A  --0----------------------0----------------------0----------------------------------------------
E  ------------------------------------------------------------------------------------------------

"Like no man's eye had ever seen"

E  ---------------0-------------------4---------------------4----------------------5-------------4-
B ------------0-----0-------------3-----3--------------3------3---------------3-----3----------3-
G  --------4------------4------4-----------4--------4-------------4--------4------------4------4-
D  -----2-------------------2-----------------2--2-------------------2--2------------------2---2-
A --0----------------------------------------------------------------------------------------------
E  -------------------------------------------------------------------------------------------------

Heavy part

E  -------------------------------------------------------------------------------------
B  -------------------------------------------------------------------------------------
G  -------------------------------------------------------------------------------------
D  --2----------2---------2--0---3----------3----------3--0--4----------4----------4-0--
A  --0--0000--0-0000--0--0---0--0000--0--0000--0--0--0--0000--0--0000--0--0-------------
E  --------------------------------------------------------------------------------------

E  ---------------------------------------]  Play twice then play  E---------------
B  ---------------------------------------]   this ending          B---------------
G  ---------------------------------------]                        G-----3---5---4-
D  --3----------3----------3--0-----------]                        D ----3---5---4-
A  --0--0000--0--0000--0--0---------------]                        A ----1---3---2-
E  ---------------------------------------]                        E --------------

The next verse is just the finger picking riff above. Listen to the recording if you must.
After "A city forgotten, on top of the world" play 

"They had headphones, stuck to their skulls"              Play twice, with the same ending
                                                          as the heavy part above. Then
                                                          play twice without the ending.
                         
E  ------------------------------------------------------------
B  ------------------------------------------------------------
G  ------------------------------------------------------------
D  --2-2--2--2--0---2-2--2--2--0---6-6--6--6--0---2-2--2--2----
A  --2-2--2--2--0---3-3--3--3--0---4-4--4--4--0---3-3--3--3----
E  --0-0--0--0--0----------------0-----------------0-----------

"They came from a planet lightyears away from here"

E  -------------------------------------------------------------------
B  -------------------------------------------------------------------
G  ----------------------------0--------------------------------------
D  --------0---------------1------1-------------0----------4-4--4--4--
A  -----1-----1--------3-------------3------1------1------4-4--4--4---
E  --3------------3-----------------------3------------3---2-2--2--2--




"To bring knowledge, truth and culture"
                                      pm . . . . . .
E  ----------------------------------------------------  Play the last D power cord 
B  ----------------------------------------------------  many times with heavy palm
G  ------------------------0----------7--7-7-7-7-7-7---  muting, then go straight into 
D  --------0-----------1------1-------7--7-7-7-7-7-7--- the next riff.
A  -----1----1-----3-------------3----5--5-5-5-5-5-5---
E  --3----------3--------------------------------------

"Before life crept out of water"    This is the best part of the song and album.
  pm all of it
E  ------------------------------------------------------------------------
B  ------------------------------------------------------------------------
G  ------------------------------------------------------------------------ play
D  --5-5-5-5-5-5-5-5---------------------7-7-7-7-7-7-7-7--2-2-2-2-2-2-2-2-- twice
A  --7-7-7-7-7-7-7-7---7-7-7-7-7-7-7-7---7-7-7-7-7-7-7-7--2-2-2-2-2-2-2-2--
E  --0-0-0-0-0-0-0-0---8-8-8-8-8-8-8-8---5-5-5-5-5-5-5-5--0-0-0-0-0-0-0-0--

"Now they are lost in the ice, lost in the ice!"

E  ------------------------------------------------------------------------------
B  ------------------------------------------------------------------------------
G  -----------------------5-5-5-5-5-5-5-5--------------------------3----5----4--- play
D  --5-5-5-5-5-5-5-5--5-5-5-5-5-5-5-5--5-5-5-5-5-5-5-5-----3----5----4----------- twice
A  --5-5-5-5-5-5-5-5--3-3-3-3-3-3-3-3--5-5-5-5-5-5-5-5-----1----3----2-----------
E  --3-3-3-3-3-3-3-3-----------------------3-3-3-3-3-3-3-3-----------------------

Now just repeat some of the verses already tabbed, and when you reach 
"Before life crept out of water" play it twice then play

E  ---------------------------------------------------------------------------
B  ---------------------------------------------------------------------------
G  --4-4-4-4-4-4-4-4----------------------------------------------------------
D  --5-5-5-5-5-5-5-5---5-5-5-5-5-5-5-5---7-7-7-7-7-7-7-7---2-2-2-2-2-2-2-2----
A  --7-7-7-7-7-7-7-7---7-7-7-7-7-7-7-7---7-7-7-7-7-7-7-7---2-2-2-2-2-2-2-2----
E  --0-0-0-0-0-0-0-0---8-8-8-8-8-8-8-8---5-5-5-5-5-5-5-5---0-0-0-0-0-0-0-0-----
It sounds basically the same, but I'm sure it's what Rage are playing. Then play the
"Now they are lost in the ice, lost in the ice!" riff twice, and go get an orchestra.



After the orchestra the fast part of the solo comes on, which I can't be bothered tabbing, so just improvise over
    pm all of it
E  ---------------------------------------------------------------------------------
B  ---------------------------------------------------------------------------------
G  -----------------------------------------------4-4-4-4-4-4-4-4-4-4-4-4-4-4-4-4---
D  --4-4-4-4-4-4-4-4-4-4-4-4-4-4-4-4------4-4-4-4-4-4-4-4-4-4-4-4-4-4-4-4-----------
A  --4-4-4-4-4-4-4-4-4-4-4-4-4-4-4-4------2-2-2-2-2-2-2-2-2-2-2-2-2-2-2-2-----------
E  --2-2-2-2-2-2-2-2-2-2-2-2-2-2-2-2------------------------------------------------

Slower half of the solo

E  -----------------------------------------------------------------------------
B  -----12-----------------12---------------12----------------------------------
G  ----------14--12------------14--12-----------14---12----7  s/  9----9--------
D  -14----------------14----------------14--------------------------------------
A  --------------------------------------------------------------5  s/  7----7--
E  -----------------------------------------------------------------------------

E  -----------------------------------------------------------15-14-------------
B  ------12--------------12-------12--15--12- b 15 (17) ----------15 p 14 p12---
G  ----------14--12----------14-------------------------------------------------
D  -14---------------14---------------------------------------------------------
A  -----------------------------------------------------------------------------
E  -----------------------------------------------------------------------------

Manni plays this part of the solo without hammers or pull-offs, he plays tripplets. But it's much easier this way.

E  ----------------------------------------------------12 h  14 h  15 -----b 17 (19)
B  ------------------------------------12 h  14 h  15------------------------------
G  -14 p  12 p  11--11 h  12 h  14----------------------------------------------
D  -----------------------------------------------------------------------------
A  ------------------------------------------------------------------------------
E  ------------------------------------------------------------------------------


Rythm for 2nd half of the solo

E  --------------------------------------------------
B  --------------------------------------------------
G  --9----------------------------------------------- play 
D  --9-----10-------7-----2-------------------------- twice
A  --7-----10-------7-----2--------------------------
E  ---------8--------5-----0-------------------------


"Oh, what a strange and awful vision for us all"
   pm. . . . . . . . . . . . . . . .     .   . . . . . . . . . . . . . . . . . . 
E  --------------------------------------------------------------------------------
B  --------------------------------------------------------------------------------
G  ----------------------------------------------4---4-4-4-4-4-4-4-4-4-4-4-4-4-4--- 
D  --4---4-4-4-4-4-4-4-4-4-4-4-4-4-4-----4---4-4-4-4-4-4-4-4-4-4-4-4-4-4-----------
A  --4---4-4-4-4-4-4-4-4-4-4-4-4-4-4-----2---2-2-2-2-2-2-2-2-2-2-2-2-2-2-----------
E  --2---2-2-2-2-2-2-2-2-2-2-2-2-2-2-----------------------------------------------

That's pretty much it, except for the part "And we walked beneath the city, hours and hours" with is like the same riff as "They had headphones stuck to their skulls", except up 2 and half tones, or play one string higher. Have fun.

Just a note on the pm symbol. pm means palm mute, and the dot above the lines show which notes to mute.
            
Submit corrections

comments powered by Disqus
↑ Back to top | Rage Tabs for Lost In The Ice. Lyrics for acoustic guitar and electric guitar. Tablatures and chords are parodies/interpretations of the original songs. You may use it for private study, scholarship, research or language learning purposes only