>
 >
Incomplete

Incomplete Guitar Tabs

Rage - Incomplete chords, tabs, tablatures, lyrics

Guitar lessons | Add/correct | Request | Top 50 tabs Artists:  A B C D E F G H I J K L M N O P Q R S T U V W X Y Z 0-9

Incomplete Guitar Tabs – Rage

CD, Sheet music, Poster

Do you like Incomplete? Share with your friends now
Tabs
Band : RAGE
Song : Incomplete
Written by Peter "Peavy" Wagner and Christian Wolff


Intro :

Piano arranged for guitar :
                                                       2x
|--------------------------------------------------------|
|-6---6-5-6---6-5-8~--------5-6-----------------5-6-5----|
|----------------------5~-5-------5--5-7-5~---7-------5~-|
|-------------------------------8------------------------|
|--------------------------------------------------------|
|--------------------------------------------------------|

Then

Gtr 1:
  G5                  (C5)        G5              A#5 G#5 A#5 2x
|------------------------------------------------------------|
|------------------------------------------------------------|
|------------------------------------------------------------|
|---------------------(5)-(5)---------------------3~---------|
|-5~--------5~--------(3)-(3)-----5~--------5~----1~--6/8-8~-|
|-3~--------3~--------------------3~--------3~--------4/6-6~-|

The second time, gtr 2 plays :
                                                           harm.
|-------------------------------------------------------------|
|-------------------------------------------------------------|
|----------------------------------------------------------12-|
|-------------------------7~----8~----8-7---------------------|
|-10~~--------10~~------------------------10~----11--11/13----|
|-------------------------------------------------------------|

Verse :

Gtr 3: (acoustic)
       Here I am          Still I try to find out where I'm really now
  G                                   D           Bm
|-------------------------------------------------------------------------
|-------------12------------------------------------------7---------------
|-------12-------12----12-------12-------------11-----7-----9---9---------
|----12----12-------12-------12----12-------12------9---9-----9-------9---
|-10----------------------10-------------12-------9-----------------9---9-
|-------------------------------------10--------------------------7-------

          What has been I've laid it down forgotten on a shelf            
 A                                     G5      F#5     Em                  
------------------5-----------------------------------------------7-------
-----------------------------------5------------------------------8-------
--------------6-----6---6-------6----------0-------0----------9-----9---9-
-----7------7---7-----7------7-------------0-------0--------9---9-----9---
---7---7--7---------------7------------5-------4-------7--7---------------
-5-------------------------------------3-------2-------0------------------

 An hold pair of shoes that I've grown out
                 Am              D5
-----------------------------------------0-------|
-------------------------1-----------3-----3---3-|
-----0-------0-------2-----2---2---2---2-----2---|
---2---2---0---0---2---2-----2---0---------------|
-3-------2-------0-------------------------------|
-------------------------------------------------|

Prechorus :

Gtr 1&2:

  There's never enough to take when you're running away  from emptieness
          E5     Am                 E5       Am               F# G  D5
|----------------0---------------------------0--------------------------|
|----------------1---------------------------1--------------------------|
|---------9------2------------------9--------2----------------11-12-7---|
|---------9------2------------------9--------2----------------------7---|
|---------7------0------------------7--------0----------------9--10-5---|
|-----------------------------------------------------------------------|

Then :

|----------------------------|
|-15-14-12----12-------------|
|----------14----14-13-11----|
|-------------------------14-|
|----------------------------|
|----------------------------|

Chorus :


    My days seem  like wasted    I'm incomplete
  Gtr 3:                                       
  G             D5            Em            C             2x
|-3------3--------------------0------0------0---------------|
|-3------3------3------3------0------0------1---------------|
|-0------0------2------2------X------X------0------0--0-0-0-|
|-0------0------0------0------2------2------2------2--0-0-0-|
|-2------2--------------------2------2------3------3--2-0---|
|-3------3--------------------0------0------3-------------3-|
|                                                               
|                                                               
| Gtr 1&2:                                                      
| G5            D5            E5            C5            2x 
|-----------------------------------------------------------|
|-----------------------------------------------------------|
|---------------7---------------------------5---------------|
|-5-------------7-------------2-------------5------5--4-2---|
|-5-------------5-------------2-------------3------3--2-0-5-|
|-3---------------------------0---------------------------3-|


     I'm lost  alone and incomplete                          
  Gt 3:                                                      
  G             Em            B5            C5            G   
|-3------3------0------0--------------------0------0------3-|
|-3------3------0------0--------------------1------1------3-|
|-0------0------X------X------4------4------0------0------0-|
|-0------0------2------2------4------4------2------2------0-|
|-2------2------2------2------2------2------3------3------2-|
|-3------3------0------0--------------------3------3------3-|
|                                                               
|                                                               
| Gtr 1&2:                                                      
| G5            E5            B5                                
|-----------------------------------------------------------|
|-----------------------------------------------------------|
|-----------------------------4-----------------------------|
|-5-------------2-------------4-----------------------------|
|-5-------------2-------------2-----------------------------|
|-3-------------0-------------------8~-7~-5-8~-7~-5-8~-7~-5-|

Repeat 2nd part of Intro without gtr 2 then repeat verse and chorus

Solo :
                    b(1/2)rb(1/2)r   po                       po
|-15~~~~------------------------------------15~~~~--22~~~~--18-17-18~~-(15)-
|---------15~~~~------------------------------------------------------------
|-----------------14---------------14-12~~\---------------------------------
|---------------------------------------------------------------------------
|---------------------------------------------------------------------------
|---------------------------------------------------------------------------

      po       po                                          h    
---------8~~-------15~~-----------------------------------------------------
-----8-6-----15-13------18-16-15--16-15-13-15-13------13-13-15-15~~---------
-------------------------------------------------15~~-------------------7-5-
-5~~----------------------------------------------------------------5~~-----
------------------------------------------------------------------------5\3-
-3~~----------------------------------------------------------------3~~-----

        po                                            h             h
------------15~~-15-17-18--20-17-18-15--------------------------------------
------15-13----------------------------15-16~~~~----------------------------
-12~~--------------------------------------------17-17-19-19~--17-17-19-19~-
----------------------------------------------------------------------------
-10~~-----------------------------------------------------------------------
----------------------------------------------------------------------------


------------------------------------|
------------------------------------|
-17-18-19-18-17---------------------|
----------------19-18-17------------|
-------------------------17-16-15~~-|
------------------------------------|

Tablature Explanation :

h         : Hammer On
po        : Pulling Off
harm      : Harmonic
\ or /    : Slide
b(1/2)r   : Bend (half a step) and release





Comments


Popular Rage tabs & chords
In Vain Bass Tabs
Baby, I'm Your Nightmare Tabs
Certain Days Tabs
Down By Law Tabs
End Of All Days Tabs
Higher Than The Sky 1 Tabs
Introductiona Bit More Green Intro Tabs
Raw Caress Tabs
Truth Hits Everybody Tabs
Waiting For The Moon Tabs


Song lyrics



↑ Back to top | Tablatures and chords are parodies/interpretations of the original songs. You may use it for private study, scholarship, research or language learning purposes only
© 2014 AZChords.com Contact us | Privacy policy | DMCA | Add/correct tabs | Request tabs | Top 50 tabs