>
 >
From The Cradle To The Grave

From The Cradle To The Grave Bass Tabs

Rage - From The Cradle To The Grave chords, tabs, tablatures, lyrics

Guitar lessons | Add/correct | Request | Top 50 tabs Artists:  A B C D E F G H I J K L M N O P Q R S T U V W X Y Z 0-9

From The Cradle To The Grave Bass Tabs – Rage

CD, Sheet music, Poster

Do you like From The Cradle To The Grave? Share with your friends now
Bass Tabs

G------------------|----------------------|
D------------------|-------------------3--| X 4
A-4-3-2---1---0----|-4-3-2---1---7-5-7---7|
E-------3-------5-5|-------3--------------|


G------------------|----------------------|
D-4-3-2---1---0----|-4-3-2---1---------5--| X 2 
A-------3-------5-5|-------3-----9-7-9---9|
E------------------|----------------------|


G------|
D------|
A--0*--|
E------|


G-----------------------------------------------------|
D------------------3----3----3----6----6--------------|
A--0-----0-----0--------------------------------------|
E------------------------------------------4-4-4-4-4-4|


G------------------|----------------------|
D------------------|-------------------3--| X 2
A-4-3-2---1---0----|-4-3-2---1---7-5-7---7|
E-------3-------5-5|-------3--------------|


G----------------------------------------------------|
D-------------------3----3-------3----3--------------|
A--0-----0-----0-------------0-----------------------|
E----------------------------------------4-4-4-4-4-4-|


G------------------|----------------------|
D------------------|-4-3-2-------------5--|
A-4-3-2---1---0----|-------3-----9-7-9---9|
E-------3-------5-5|----------------------|


G-----------------------------------|
D-----------------------------------|
A-3-3-3-3--1-1-1-1--5-5-5-5--3-3-3-3|
E-----------------------------------|


G------------------------------------|---------------------|
D------------------------------------|---------------------|
A--6-6-6-6--4-4-4-4--5-5-5-5--3-3-3-3|-2-2-2-2--4-4-4-4--0*|
E------------------------------------|---------------------|



G------------------|----------------------|
D------------------|-4-3-2-------------5--|
A-4-3-2---1---0----|-------3-----9-7-9---9|
E-------3-------5-5|----------------------|


G-----------------------------------|
D-----------------------------------|
A-3-3-3-3--1-1-1-1--5-5-5-5--3-3-3-3|
E-----------------------------------|

G------------------------------------|----------------------|
D------------------------------------|----------------------|
A--6-6-6-6--4-4-4-4--5-5-5-5--3-3-3-3|-2-2-2-2--4-4-4-4--0*-|
E------------------------------------|----------------------|


G---------------------------------------|
D---------------------------------------| X 2
A-----------1--1-4--4-8--8-7--7-8--8-7-7|
E-2--2-6--6-----------------------------|


G-----------------------------------------------------------------------|
D-----------------------------------------------------------------------| X 2
A-3-3-3-3--1-1-1-1--5-5-5-5--3-3-3-3--6-6-6-6--4-4-4-4--5-5-5-5--3-3-3-3|
E-----------------------------------------------------------------------|


G----------------------------------|---------------------|
D-------------------------5--5--5--|---------------------|
A-2-2-2-2--4-4-4-4--0*-------------|-2-2-2-2--4-4-4-4--0*|
E----------------------3--3--3----4|---------------------|


G------------------|----------------------|
D------------------|-------------------3--| X 2
A-4-3-2---1---0----|-4-3-2---1---7-5-7---7|
E-------3-------5-5|-------3--------------|


G------------------------------------------------|
D------------------------------------------------|
A-4-2-1-1--4-2-1-1--4-2-1-1--4-2-1-1--4-2-1-1--0*|
E------------------------------------------------|
 
Well that's all, very easy I think, hope you enjoy!





Comments


Popular Rage tabs & chords
Price Of War Bass Tabs
Alive But Dead Intro Tabs
Baby, I'm Your Nightmare Tabs
Back In Time Tabs
Black In Mind Tabs
Broken Musicbox Tabs
Dust Tabs
Incomplete Tabs
Insanity Tabs
Vanished In Haze Tabs


Song lyrics



↑ Back to top | Tablatures and chords are parodies/interpretations of the original songs. You may use it for private study, scholarship, research or language learning purposes only
© 2014 AZChords.com Contact us | Privacy policy | DMCA | Add/correct tabs | Request tabs | Top 50 tabs