» » »

Rage, Freedom Tabs (ver.1)

Artists:  A B C D E F G H I J K L M N O P Q R S T U V W X Y Z # 

Freedom Tabs (ver.1)

Rage Tabs
Rating:
0/5 (0 votes)
Freedom lessons Tabs too difficult? Try these video lessons and learn fast
                rage against the machine
freedom

p - pull off     v - vobrato
h - hammer       ~ -let ring
/ - slide


e|----------------------------------------------------------------------------
b|----------------------------------------------------------------------------
g|----------------------------------------------------------------------------
d|------------------------------------------------x-x-x-----------------------
a|-5-------3---------5-5-----5-------3---------5--x-x-x-----------------------
d|---0-3-5---5-3-5-3-----0-3---0-3-5---5-3-5-3----x-x-x-----------------------

e|----------------------------------------------------------------------------
b|----------------------------------------------------------------------------
g|----------------------------------------------------------------------------
d|-----------------------------------------------543--------------------------
a|-5-------3---------5-5-----5-------3---------5----543-----------------------
d|---0-3-5---5-3-5-3-----0-3---0-3-5---5-3-5-3--------------------------------

play 2 times

e|----------------------------------------------------------------------------
b|----------------------------------------------------------------------------
g|-14-x-x-14-x-x-x-x-14-14-x-x-14-x-x-14-x-x-x-x------------------------------
d|-12-x-x-12-x-x-x-x-12-12-x-x-12-x-x-12-x-x-x-x------------------------------
a|-12-x-x-12-x-x-x-x-12-12-x-x-12-x-x-12-x-x-x-x------------------------------
d|-12-x-x-12-x-x-x-x-12-12-x-x-12-x-x-12-x-x-x-x-10-9-10----------------------

play 2 times 



e|----------------------------------------------------------------------------
b|----------------------------------------------------------------------------
g|----------------------------------------------------------------------------
d|------------------------------------------------x-x-x-----------------------
a|-5-------3---------5-5-----5-------3---------5--x-x-x-----------------------
d|---0-3-5---5-3-5-3-----0-3---0-3-5---5-3-5-3----x-x-x-----------------------

e|----------------------------------------------------------------------------
b|----------------------------------------------------------------------------
g|----------------------------------------------------------------------------
d|-----------------------------------------------543--------------------------
a|-5-------3---------5-5-----5-------3---------5----543-----------------------
d|---0-3-5---5-3-5-3-----0-3---0-3-5---5-3-5-3--------------------------------

play 2 times again

e|----------------------------------------------------------------------------
b|----------------------------------------------------------------------------
g|-14-x-x-14-x-x-x-x-14-14-x-x-14-x-x-14-x-x-x-x------------------------------
d|-12-x-x-12-x-x-x-x-12-12-x-x-12-x-x-12-x-x-x-x------------------------------
a|-12-x-x-12-x-x-x-x-12-12-x-x-12-x-x-12-x-x-x-x------------------------------
d|-12-x-x-12-x-x-x-x-12-12-x-x-12-x-x-12-x-x-x-x-10-9-10----------------------

play 2 times again

this is where bass and drums play without guitar

e|----------------------------------------------------------------------------
b|----------------------------------------------------------------------------
g|----------------------------------------------------------------------------
d|----------------------------------------------------------------------------
a|-10-10-10h12-12-12-12-12----------------------------------------------------
d|-10-10-10h12-12-12-12-12----------------------------------------------------

play 12 times

solo
e|----------------------------------------------------------------------------
b|--------------------------------------------------8-10-11-10-8--------------
g|-10v-10-9v-----------------------10v-------10v-10--------------10-9v/15-----
d|-----------------10v-------10h12-----12v/1----------------------------------
a|-----------10h12-----10h12--------------------------------------------------
d|----------------------------------------------------------------------------


e|-12-13-12----12-13-12----12-13-15-17-15-13-15-13----------------------------
b|----------13----------13-------------------------15v/7----------------------
g|----------------------------------------------------------------------------
d|----------------------------------------------------------------------------
a|----------------------------------------------------------------------------
d|----------------------------------------------------------------------------


e|----------------------------------------------------------------------------
b|----------------------------------------------------------------------------
g|----------------------------------------------------------------------------
d|----------------------------------------------------------------------------
a|----------------------------------------------------------------------------
d|-12-10-12-10-12--17-15-17-15-17--10-9-10-9-10--0-3-5-3-5-0-2v---------------

play 5 times


e|----------------------------------------------------------------------------
b|----------------------------------------------------------------------------
g|-14-14-14-14-x-14-14-14-14-x-14-14-14-14-x-14/5-----------------------------
d|-12-12-12-12-x-12-12-12-12-x-12-12-12-12-x-12/3-----------------------------
a|-12-12-12-12-x-12-12-12-12-x-12-12-12-12-x-12/3-----------------------------
d|-12-12-12-12-x-12-12-12-12-x-12-12-12-12-x-12/3-----------------------------

e|----------------------------------------------------------------------------
b|----------------------------------------------------------------------------
g|-14-x-x-14-x-x-x-x-14-14-x-x-14-x-x-14-x-x-x-x------------------------------
d|-12-x-x-12-x-x-x-x-12-12-x-x-12-x-x-12-x-x-x-x------------------------------
a|-12-x-x-12-x-x-x-x-12-12-x-x-12-x-x-12-x-x-x-x------------------------------
d|-12-x-x-12-x-x-x-x-12-12-x-x-12-x-x-12-x-x-x-x-10-9-10----------------------

play 2 times

another bass and drumm part no guitar

e|----------------------------------------------------------------------------
b|----------------------------------------------------------------------------
g|----------------------------------------------------------------------------
d|----------------------------------------------------------------------------
a|-10-10-10h12-12-12-12-12----------------------------------------------------
d|-10-10-10h12-12-12-12-12----------------------------------------------------

ending
e|----------------------------------------------------------------------------
b|----------------------------------------------------------------------------
g|-----------5-6-7------------------------------------------------------------
d|-0-3-4-5/7-----------------2-5-6-7------------------------------------------
a|------------------0-3-4-5--0-3-4-5------------------------------------------
d|------------------0-3-4-5---------------------------------------------------

listen to the song for timing i dunnoexact speed
            

comments powered by Disqus
↑ Back to top | Rage Tabs for Freedom. Lyrics for acoustic guitar and electric guitar. Tablatures and chords are parodies/interpretations of the original songs. You may use it for private study, scholarship, research or language learning purposes only