» » »

Rage, End Of All Days Tabs (ver.1)

Artists:  A B C D E F G H I J K L M N O P Q R S T U V W X Y Z # 

End Of All Days Tabs (ver.1)

Rage Tabs
 Rating:
3.4/5 (5 votes)
End Of All Days lessons Tabs too difficult? Try these video lessons and learn fast
                			END OF ALL DAYS
			   (RAGE)
                (from the album "End of all days)
		     (turn down 1/2 step)
			  09.03.2000


Any comments, suggestions, or errors refering to the tab below 
that should be brought to my attention, please e-mail me.



Note: PM (Palm muting)
      T (Tapping)


RIFF 1
E-----------0-------------------------------------------
B-------------0------3-0-----3--3--3-3--2--2------------
G-4--4--4-4-----4-4------4-4-0--0--0-0--0--0------------
D-4--4--4-4-----4-4------4-4----------------------------
A-2--2--2-2-----2-2------2-2----------------------------
E-------------------------------------------------------
      PM...    PM..     PM..      PM..

enter 2nd guitar
E-----------0-------------------------------------------
B-------------0------3-0-----3--3--3-3--2--2------------
G-4--4--4-4-----4-4------4-4-0--0--0-0--0--0------------
D-4--4--4-4-----4-4------4-4----------------------------  (9 X)
A-2--2--2-2-----2-2------2-2----------------------------
E-------------------------------------------------------
      PM...    PM..     PM..      PM..


RIFF 2
And then, when this fatal moment come to be........
E-----------------------------------------------------------------
B-----------------------------------------------------------------
G--------4---------4--------3--4--3-------4--------4--------6-7-6- (2 X)
D------5---------5--------4-------------5--------5--------7-------
A----5---------5--------4-------------5--------5--------7---------
E-----------------------------------------------------------------
 G (3fr)    G (3fr)  F# (4fr)      G (3fr)  G (3fr)  A (5fr)


CHORUS:
Once I fell in love with you.....
E-----------------------------------------------------
B--------3----5---3-----------3-----------2------------
G------4---4----4---4-------4-----------4--------------  (4 X)
D----4--------------------4-----------4----------------
A-----------------------------------------------------
E-----------------------------------------------------
 B (2fr)               B (2fr)    B (2fr) 

RIFF 3
Hey, you won't find me..........
E-----------------------------------------------------------------
B-----------------------------------------------------------------
G--------4---------4--------6--7--6-------4--------4--------------
D------5---------5--------7-------------5--------5---------------
A----5---------5--------7-------------5--------5-----------------
E-----------------------------------------------------------------
 G (3fr)    G (3fr)  A (5fr)      G (3fr)  G (3fr)    E


RIFF 1 (6 X)

RIFF 2 (2 X)

CHORUS (4 X)

RIFF 3



BREAK:

B(2fr)    B(2fr)  C#(4fr)  D(5fr)  G(3fr)     G(3fr)  G(3fr)  F#(2fr)  E

E  F#(2fr)  G(3fr)  F#(2fr)   E   D(5fr)  C#(4fr)


B(2fr)    B(2fr)  C#(4fr)  D(5fr)  G(3fr)     G(3fr)  G(3fr)  F#(2fr)  E

E  F#(2fr)  G(3fr)  A(5fr)   G(3fr)  F#(2fr)  G(3fr)



Solo
E-----------------------------------------------------
B-----------------------------------------------------
G-----------11----------------------------------------
D--12--12-14------------------------------------------
A--------------14--14-12-10-10--12-14-12-10-----------
E-------------------------------------------14-12-----


E-----------------------------------------------------
B-----------------------------------------------------
G-----------11----------------------------------------
D--12--12-14--------------------------14-12-11-12-----
A--------------14--14-12-10-10--12-14-----------------
E-----------------------------------------------------


                     T  T  T  T  T  T  T  T
E-----------------7--12-14-15-17-19-17-15-14----------------------
B--------------------------------------------12---12-15-----------
G-------------------------------------------------------14-12-----
D--14---12-11-12---------------------------------------------12---
A-----------------------------------------------------------------
E-----------------------------------------------------------------


E-----------------------------------------------------------------
B-----------------------------------------------------------------
G------------------11-12-14-12-11----------------------------11---
D----------11-12------------------14-12-11---12-11-11-12--14------
A-14----14--------------------------------------------------------
E-----------------------------------------------------------------



     T  T  T  T    T  T  T  T                ^^^^
E--------------------------------12-14-15-17-19-----------------
B-7--12-14-15-12---12-14-15-12----------------------------------
G---------------------------------------------------------------
D---------------------------------------------------------------
A---------------------------------------------------------------
E---------------------------------------------------------------


CHORUS

RIFF 3



B(2fr)    B(2fr)  C#(4fr)  D(5fr)  G(3fr)     G(3fr)  G(3fr)  F#(2fr)  E

E  F#(2fr)  G(3fr)  F#(2fr)   E   D(5fr)  C#(4fr)


B(2fr)    B(2fr)  C#(4fr)  D(5fr)  G(3fr)     G(3fr)  G(3fr)  F#(2fr)  E

E  F#(2fr)  G(3fr)  A(5fr)   G(3fr)  F#(2fr)  G(3fr)


B(2fr)    B(2fr)  C#(4fr)  D(5fr)  G(3fr)     G(3fr)  G(3fr)  F#(2fr)  E

E  F#(2fr)  G(3fr)  F#(2fr)   E   D(5fr)  C#(4fr)


B(2fr)    B(2fr)  C#(4fr)  D(5fr)  G(3fr)     G(3fr)  G(3fr)  F#(2fr)  E

E  F#(2fr)  G(3fr)  A(5fr)   G(3fr)  F#(2fr)  G(3fr)  B
            
Submit corrections

comments powered by Disqus
↑ Back to top | Rage Tabs for End Of All Days. Lyrics for acoustic guitar and electric guitar. Tablatures and chords are parodies/interpretations of the original songs. You may use it for private study, scholarship, research or language learning purposes only