» » »

Rage, Down Tabs (ver.1)

Artists:  A B C D E F G H I J K L M N O P Q R S T U V W X Y Z # 

Down Tabs (ver.1)

Rage Tabs
 Rating:
4/5 (4 votes)
Down lessons Tabs too difficult? Try these video lessons and learn fast
                Ok this is my very first tab and it should be pretty correct. I’ve listened to the song a bunch of times and it sounds the way Victor plays it. 
Standart tuning (EADGBe), so here we go:

Type A (0:03 – 0:11)     play twice
|-------------------------------------------------------------------------------------------------------------------|
|-------------------------------------------------------------------------------------------------------------------|
|-------------------------------------------------------------------------------------------------------------------|
|-------------------------------------------------------------------------------------------------------------------|
|-------------------------------------------------------------------------------------------------------------------|
|--0--0--0------0--0--0-----0--0-----0--0--0------0--0—1p0—1p0—1p0---------------------------------|
    |--pm--|       |--pm--|     |-pm-|    |--pm--|       |-pm-|  

Type B (0:12 – 0:19)    play twice
|-------------------------------------------------------------------------------------------------------------------|
|-------------------------------------------------------------------------------------------------------------------|
|-------------------------------------------------------------------------------------------------------------------|
|-------------------------------------------------------------------------------------------------------------------|
|---------7-----5h7--------8------5h7------8------11--------7------5h7---------------------------------------|
|--0--0-----0--------0--0-----0---------0------0------0--0------0--------0--0-----1p0----1p0----1p0------|
   |-pm-|   |pm|       |-pm-|   |pm|     |pm|     |pm|     |-pm-|    |pm|       |-pm-|

after the second time (0:20) add:
|--0----------------------|          
|------0------------------|
|----------2--------------|
|--------------3----------|
|--------------------------|
|--------------------------|        throughout the part where drums and bass enter play Type B….


Part before the Solo:

(2:42 – 2:52)
|-------------------------------------------------------------------------------------------------------------------|
|-------------------------------------------------------------------------------------------------------------------|
|-------------------------------------------------------------------------------------------------------------------|
|-------------------------------------------------------------------------------------------------------------------|
|---------7-----5h7--------8------5h7------8------11--------7------5h7---------------------------------------|
|--0--0-----0--------0--0-----0---------0------0------0--0------0--------0--0-----1p0----1p0----1p0------|
   |-pm-|   |pm|       |-pm-|   |pm|     |pm|     |pm|     |-pm-|    |pm|       |-pm-|

|--0----------------------|          
|------0------------------|
|----------2--------------|
|--------------3----------|
|--------------------------|
|--------------------------|
            
Submit corrections

comments powered by Disqus
↑ Back to top | Rage Tabs for Down. Lyrics for acoustic guitar and electric guitar. Tablatures and chords are parodies/interpretations of the original songs. You may use it for private study, scholarship, research or language learning purposes only