» » »

Rage, Bombtrack Tabs (ver.1)

Artists:  A B C D E F G H I J K L M N O P Q R S T U V W X Y Z # 

Bombtrack Tabs (ver.1)

Rage Tabs
 Rating:
4/5 (4 votes)
Bombtrack lessons Tabs too difficult? Try these video lessons and learn fast
                Standard Tuning
Intro:(Clean)
e|----------------------------------------------------------------------------|
B|----------------------------------------------------------------------------|
G|--------------------------------0-------------------------------------------| 
D|-----2-0---0----------2-0---0-2-------2-0---0---------2-0---0---------------| 
A|---------2---2-0----------2---------------2---2-0---------2---2-------------|
E|--0---------------3-0---------------0-------------3-0-----------3-2---------|
Palm Muted....................................................................>

             
e|-----------------------------------------------------------------------------|
B|-----------------------------------------------------------------------------|
G|--------------------------------(0-2)0---------------------------------------| 
D|-----2-0---0----------2-0---0-2------------2-0---0---------2-0---0-----------| 
A|---------2---2-0----------2--------------------2---2-0---------2---2---------|
E|--0---------------3-0-------------------0--------------3-0-----------3-2-----|
	   Reapetedly Hammer down 2 ^   
Palm Muted........................       ......................................>

Riff 1:

e|------------------------------------------------------------------------|
B|------------------------------------------------------------------------|
G|----------------------------------------6---5---4-----------------------| 
D|-------4-----------4-2-------4----------6---5---4-----------------------| 
A|----------------------------------------4---3---2-----------------------|
E|--0-2----0-2--0-2-------0-2----0-2---0--4---3---2-----------------------|
            
Submit corrections

comments powered by Disqus
↑ Back to top | Rage Tabs for Bombtrack. Lyrics for acoustic guitar and electric guitar. Tablatures and chords are parodies/interpretations of the original songs. You may use it for private study, scholarship, research or language learning purposes only