» » »

Raein, The King Is Dead Tabs (ver.1)

Artists:  A B C D E F G H I J K L M N O P Q R S T U V W X Y Z # 

The King Is Dead Tabs (ver.1)

Raein Tabs
 Rating:
4/5 (4 votes)
The King Is Dead lessons Tabs too difficult? Try these video lessons and learn fast
                Raein - The King Is Dead
Tuning: Standard or Drop D

Clean Guitar:
E||--------------------------|-------------------------|
B||------------0-------------|-----------0-------------|
G||*--------5-------------5--|--------5-------------5--|
D||*-----7-------------7-----|-----7-------------7-----|
A||---0-------------0--------|--0-------------0--------|
E||--------------------------|-------------------------|

--------------------------|---------------------------|
--------1--------1--------|---------------------------|
-----2--------2--------2--|*--------5--4----------5--*|
--3--------3--------2-----|*-----7-----7-------7-----*|
--------------------------|---0-------------0---------|
--------------------------|---------------------------|

                             Distortion Guitar:
---------------------------||--3----3--|--3----3--|--0----0--|
--------1--------1---------||--0----0--|--0----0--|--0----0--|
-----2--------2--------2--*||--2----2--|--2----2--|--2----2--|
--3--------3--------2-----*||--3----3--|--3----3--|--3----3--|
---------------------------||----------|----------|----------|
---------------------------||----------|----------|----------|

--0--0--0--0--0--0--0--0--|--3----3--|--3----3--|--0----0--|--0--|
--0--0--0--0--0--0--0--0--|--0----0--|--0----0--|--0----0--|--0--|
--2--2--2--2--2--2--2--2--|--2----2--|--2----2--|--2----2--|--2--|
--3--3--3--3--3--3--3--3--|--3----3--|--3----3--|--3----3--|--3--|
--------------------------|----------|----------|----------|-----|
--------------------------|----------|----------|----------|-----|

|---0--0--0--0-0--0--0--0-0--|--3--0--0--0-0--0--0--0-0--|
|---0--0--0--0-0--0--0--0-0--|--3--3--3--3-3--3--3--3-3--|
|*--2--2--2--2-2--2--2--2-2--|--2--2--2--2-2--2--2--2-2--|
|*--3--3--3--3-3--3--3--3-3--|--2--2--2--2-2--2--2--2-2--|
|----------------------------|---------------------------|
|----------------------------|---------------------------|

-----------------------------||--------------------------|
--1--1-1--1--1-0--0-0--0--0--||--------------------------|
--2--2-2--2--2-2--2-2--2--2-*||*--2---2---2--2--2--2--2--|
--2--2-2--2--2-2--2-2--2--2-*||*--3---3---3--3--3--3--3--|
-----------------------------||---0---0---0--0--0--0--0--|
-----------------------------||--------------------------|

-------------------------|--0---0---0--0--0--0--0--|
-------------------------|--1---1---1--1--1--1--1--|
--2---2---2--2--2--2--2--|--2---2---2--2--2--2--2--|
--3---3---3--3--3--3--3--|--3---3---3--3--3--3--3--|
--0---0---0--0--0--0--0--|-------------------------|
-------------------------|-------------------------|

--0---0---0--0--0--0--0---||
--0---0---0--0--0--0--0---||
--2---2---2--2--2--2--2--*|| x5
--3---3---3--3--3--3--3--*||
--------------------------||
--------------------------||

--0-------------|--------------------|--------------------|
--1-------------|--------------------|--------------------|
--2-------------|--4/5--5------------|--5/7--7------------|
--3-------------|-------7------------|--------------------|
----------------|--------------------|--------------------|
----------------|--------------------|--------------------|

------------------|--------------------|--------------------|
------------------|--------------------|--------------------|
--7\5--4/5--5-----|--7\5--4------------|--4/5--5------------|
------------------|--------------------|-------7------------|
------------------|--------------------|--------------------|
------------------|--------------------|--------------------|

------------------|------------------|--------------------|
------------------|------------------|--------------------|
--7\5--4/5--------|--7\5--4/5--------|--5/7--7------------|
------------------|------------------|--------------------|
------------------|------------------|--------------------|
------------------|------------------|--------------------|

Repeat this for the rest of the song
|------------------------------|--------------------------------||
|------------------------------|--------------------------------||
|*--4/5-5-5-5\----7-7-7-7-7----|--8-8-8-8-8----9-9-9-9-9-9-9-9-*||
|*-----------------------------|-------------------------------*||
|---2/3-3-3-3\----5-5-5-5-5----|--6-6-6-6-6----7-7-7-7-7-7-7-7--||
            
Submit corrections

comments powered by Disqus
↑ Back to top | Raein Tabs for The King Is Dead. Lyrics for acoustic guitar and electric guitar. Tablatures and chords are parodies/interpretations of the original songs. You may use it for private study, scholarship, research or language learning purposes only