>
 >
She Wears My Blood

She Wears My Blood Guitar Tabs

Raein - She Wears My Blood chords, tabs, tablatures, lyrics

Guitar lessons | Add/correct | Request | Top 50 tabs Artists:  A B C D E F G H I J K L M N O P Q R S T U V W X Y Z 0-9

She Wears My Blood Guitar Tabs – Raein

CD, Sheet music, Poster

Do you like She Wears My Blood? Share with your friends now
Tabs
Raein - She Wears My Blood
Tuning: Drop D

   Guitar 1:
E||-----------------------------------|----------------------------------|
B||-----------------------------------|----------------------------------|
G||--14--14--14--12--12--12--12-------|--10--10--10--10--10--10--10--10--|
D||-----------------------------------|----------------------------------|
A||-----------------------------------|----------------------------------|
D||-----------------------------------|----------------------------------|
 ||
 ||Guitar 2:
E||---------------------------|--------------------------|
B||---------------------------|--------------------------|
G||---------------------------|--------------------------|
D||--7--7--7--5--5--5--5------|--3--3--3--3--3--3--3--3--|
A||---------------------------|--------------------------|
D||--7--7--7--5--5--5--5------|--3--3--3--3--3--3--3--3--|


|--------------------------------|--------------------------|
|--------------------------------|--------------------------|
|--9--9--9--10--10--10--10-------|--7--7--7--7--7--7--7--7--|
|--------------------------------|--------------------------|
|--------------------------------|--------------------------|
|--------------------------------|--------------------------|
|
|
|---------------------------|--------------------------|
|---------------------------|--------------------------|
|---------------------------|--------------------------|
|--2--2--2--3--3--3--3------|--0--0--0--0--0--0--0--0--|
|---------------------------|--------------------------|
|--2--2--2--3--3--3--3------|--0--0--0--0--0--0--0--0--|


|-----------------------------------|----------------------------------|
|-----------------------------------|----------------------------------|
|--14--14--14--12--12--12--12-------|--10--10--10--10--10--10--10--10--|
|-----------------------------------|----------------------------------|
|-----------------------------------|----------------------------------|
|-----------------------------------|----------------------------------|
|
|
|---------------------------|--------------------------|
|---------------------------|--------------------------|
|---------------------------|--------------------------|
|--7--7--7--5--5--5--5------|--3--3--3--3--3--3--3--3--|
|---------------------------|--------------------------|
|--7--7--7--5--5--5--5------|--3--3--3--3--3--3--3--3--|


|--------------------------------|--------------------------|
|--------------------------------|--------------------------|
|--9--9--9--10--10--10--10-------|--7--7--7--7--7--7--7--7--|
|--------------------------------|--------------------------|
|--------------------------------|--------------------------|
|--------------------------------|--------------------------|
|
|
|---------------------------|--------------------------|
|---------------------------|--------------------------|
|---------------------------|--------------------------|
|--2--2--2--3--3--3--3------|--0--0--0--0--0--0--0--0--|
|---------------------------|--------------------------|
|--2--2--2--3--3--3--3------|--0--0--0--0--0--0--0--0--|

|-----------------------------------|----------------------------------|
|-----------------------------------|----------------------------------|
|--14--14--14--12--12--12--12-------|--10--10--10--10--10--10--10--10--|
|-----------------------------------|----------------------------------|
|-----------------------------------|----------------------------------|
|-----------------------------------|----------------------------------|
|
|
|---------------------------|--------------------------|
|---------------------------|--------------------------|
|---------------------------|--------------------------|
|--7--7--7--5--5--5--5------|--3--3--3--3--3--3--3--3--|
|---------------------------|--------------------------|
|--7--7--7--5--5--5--5------|--3--3--3--3--3--3--3--3--|

|--------------------------------|--------------------------|
|--------------------------------|--------------------------|
|--9--9--9--10--10--10--10-------|--7--7--7--7--7--7--7--7--|
|--------------------------------|--------------------------|
|--------------------------------|--------------------------|
|--------------------------------|--------------------------|
|
|
|---------------------------|--------------------------|
|---------------------------|--------------------------|
|---------------------------|--------------------------|
|--2--2--2--3--3--3--3------|--0--0--0--0--0--0--0--0--|
|---------------------------|--------------------------|
|--2--2--2--3--3--3--3------|--0--0--0--0--0--0--0--0--|

Fast screamy part:

Guitar 1 & 2
--------------------------------------------------|
--------------------------------------------------|
--14--14--14--12--12--12--12--12--12--10--10--10--|
--------------------------------------------------|
--12--12--12--10--10--10--10--10--10---8---8---8--|
--------------------------------------------------|

-----------------------------------------------|
-----------------------------------------------|
--10--10--10--10--9--9--9--10--10--10--10--10--|
-----------------------------------------------|
---8---8---8---8--7--7--7---8---8---8---8---8--|
-----------------------------------------------|

-------------------------------------------|
-------------------------------------------|
--10--7--7--7--7--7--7--7--14--14--14--12--|
-------------------------------------------|
---8--5--5--5--5--5--5--5--12--12--12--10--|
-------------------------------------------|

--------------------------------------------------|
--------------------------------------------------|
--12--12--12--12--10--10--10--10--10--10--10--10--|
--------------------------------------------------|
--10--10--10--10---8---8---8---8---8---8---8---8--|
--------------------------------------------------|

-------------------------------------------|
-------------------------------------------|
--9--9--9--10--10--10--10--10--7--7--7--7--|
-------------------------------------------|
--7--7--7---8---8---8---8---8--5--5--5--5--|
-------------------------------------------|

--------------------------------------------------|
--------------------------------------------------|
--14--14--14--12--12--12--12--12--12--10--10--10--|
--------------------------------------------------|
--12--12--12--10--10--10--10--10--10---8---8---8--|
--------------------------------------------------|

                                                 Slow down...
-----------------------------------------------|---------------------------|
-----------------------------------------------|---------------------------|
--10--10--10--10--9--9--9--10--10--10--10--10--|--10--7--7--7----7----7----|
-----------------------------------------------|---------------------------|
---8---8---8---8--7--7--7---8---8---8---8---8--|---8--5--5--5----5----5----|
-----------------------------------------------|---------------------------|

 Guitar 1:
|------------------------------------------|
|------------------------------------------|
|------------------------------------------|
|--(5)-------(5)-------(5)-------(7)-------|
|-------(3)-------(3)-------(3)-------(5)--|
|------------------------------------------|
|
|Guitar 2:
|------------------------------------------|
|------------------------------------------|
|--7~--------------------------------------|
|------------------------------------------|
|--5~--------------------------------------|
|------------------------------------------|

|------------------------------------------|--------------------------|
|------------------------------------------|--------------------------|
|------------------------------------------|-----------------7--7--7--|
|--(7)-------(7)-------(7)-------(7)-------|--7--7--7--7--7--x--x--x--|
|-------(5)-------(5)-------(5)-------(5)--|--5--5--5--5--5--5--5--5--|
|------------------------------------------|--------------------------|
|                                             Pm---------->
|
|--------------------------|--------------------------|
|--------------------------|--------------------------|
|--------------------------|--------------------------|
|--7--7--7--7--7--7--7--7--|--7--7--7--7--7--7--7--7--|
|--5--5--5--5--5--5--5--5--|--5--5--5--5--5--5--5--5--|
|--------------------------|--------------------------|
   Pm----------------------------------------------->

Clean Vocals:

---------------------|--------------------|---------------------|
---------------------|--------------------|---------------------|
--7----7--------7----|-----------7--------|--9----9--------9----|
--x----x--------x----|-----------x--------|--x----x--------x----|
--5----5--------5----|-----------5--------|--7----7--------7----|
---------------------|--------------------|---------------------|

--------------------|---------------------|--------------------|
--------------------|---------------------|--------------------|
-----------9--------|--5----5--------5----|-----------5--------|
-----------x--------|--x----x--------x----|-----------x--------|
-----------7--------|--3----3--------3----|-----------3--------|
--------------------|---------------------|--------------------|

------------------------|---------------------|---------------------|
------------------------|---------------------|---------------------|
--12----12--------12----|-----------12--------|--7----7--------7----|
---x-----x---------x----|------------x--------|--x----x--------x----|
--10----10--------10----|-----------10--------|--5----5--------5----|
------------------------|---------------------|---------------------|

--------------------|---------------------|--------------------|
--------------------|---------------------|--------------------|
-----------7--------|--7----7--------7----|-----------7--------|
-----------x--------|--x----x--------x----|-----------x--------|
-----------5--------|--5----5--------5----|-----------5--------|
--------------------|---------------------|--------------------|

---------------------|--------------------|---------------------|
---------------------|--------------------|---------------------|
--5----5--------5----|-----------5--------|--5----5--------5----|
--x----x--------x----|-----------x--------|--x----x--------x----|
--3----3--------3----|-----------3--------|--3----3--------3----|
---------------------|--------------------|---------------------|

--------------------|----------------------|---------------------|
--------------------|----------------------|---------------------|
-----------5--------|--7----7----7----7----|-----------7----7----|
-----------x--------|--x----x----x----x----|-----------x----x----|
-----------3--------|--5----5----5----5----|-----------5----5----|
--------------------|----------------------|---------------------|

----------------------|---------------------|----------------------|
----------------------|---------------------|----------------------|
--9----9----9----9----|-----------9----9----|--5----5----5----5----|
--x----x----x----x----|-----------x----x----|--x----x----x----x----|
--7----7----7----7----|-----------7----7----|--3----3----3----3----|
----------------------|---------------------|----------------------|

---------------------|----------------------|---------------------|
---------------------|----------------------|---------------------|
-----------5----5----|--5----5----5----5----|-----------5----5----|
-----------x----x----|--x----x----x----x----|-----------x----x----|
-----------3----3----|--3----3----3----3----|-----------3----3----|
---------------------|----------------------|---------------------|

----------------------|---------------------|----------------------|
----------------------|---------------------|----------------------|
--7----7----7----7----|-----------7----7----|--9----9----9----9----|
--x----x----x----x----|-----------x----x----|--x----x----x----x----|
--5----5----5----5----|-----------5----5----|--7----7----7----7----|
----------------------|---------------------|----------------------|

---------------------|----------------------|---------------------|
---------------------|----------------------|---------------------|
-----------9----9----|--5----5----5----5----|-----------5----5----|
-----------x----x----|--x----x----x----x----|-----------x----x----|
-----------7----7----|--3----3----3----3----|-----------3----3----|
---------------------|----------------------|---------------------|

----------------------|---------------------|-----------------------|
----------------------|---------------------|-----------------------|
--5----5----5----5----|-----------5----5----|*--7----7----7----7----|
--x----x----x----x----|-----------x----x----|*--x----x----x----x----|
--3----3----3----3----|-----------3----3----|---5----5----5----5----|
----------------------|---------------------|-----------------------|

-------------------|----------------------|-------------------|
-------------------|----------------------|-------------------|
--7----------------|--5----5----5----5----|--5----------------|
--x----------------|--7----7----7----7----|--7----------------|
--5----------------|--5----5----5----5----|--5----------------|
-------------------|----------------------|-------------------|

----------------------|--------------------||
----------------------|--------------------||
--5----5----5----5----|--5----------------*||
--7----7----7----7----|--7----------------*|| Repeat for the rest of the song
--5----5----5----5----|--5-----------------||
----------------------|--------------------||





Comments


Popular Raein tabs & chords
1 Di 6 Intro Tabs
Armando 10 Bota Tabs
Artmachine Observation Tower Intro Tabs
The King Is Dead Tabs
The Tree Tabs
Tigersuit Tabs
Tigersuit Intro Tabs
Tigersuit Intro 1 Tabs


Song lyrics



↑ Back to top | Tablatures and chords are parodies/interpretations of the original songs. You may use it for private study, scholarship, research or language learning purposes only
© 2014 AZChords.com Contact us | Privacy policy | DMCA | Add/correct tabs | Request tabs | Top 50 tabs