» » »

Raein, Artmachine Observation Tower Tabs (ver.1)

Artists:  A B C D E F G H I J K L M N O P Q R S T U V W X Y Z # 

Artmachine Observation Tower Tabs (ver.1)

Raein Tabs
 Rating:
4/5 (4 votes)
Artmachine Observation Tower lessons Tabs too difficult? Try these video lessons and learn fast
1
                (Intro)
E||-----------------------------|----------------------------|
B||-----------------------------|----------------------------|
G||-----------------------------|----------------------------|
D||-----7-----9-----7--9--7-----|-----7-----9-----7--9--7----|
A||-----------------------------|----------------------------|
E||---0-----0-----0-------------|--0-----0-----0-------------|


-----------------------------|------------------------------||
-----------------------------|------------------------------||
-----------4--------4h5p4----|-----------4--------4h5p4-----||
-----5-----------5-----------|-----5-----------5------------|| 
-----------------------------|------------------------------||
--0-----0-----0--------------|--0-----0-----0---------------||

play that whole thing for a while

When the talking begins, play this for a while: 
----------------------------|----------------------||
----------------------------|----------------------||
----------------------------|----------------------||
-----7-----9-----7--10--9---|-----7-----7--10--9---||
----------------------------|----------------------||
---0-----0-----0------------|--0-----0-------------||


-----8S--7--x--x--7S--5--x--|--5----3--3--3----2--0----|
-----0---0--x--x--0---0--x--|--0----0--0--0----0--0----|
----------------------------|--------------------------|
----------------------------|--------------------------|
----------------------------|--------------------------|
----------------------------|--------------------------|


-----0----0----0--x--x--|--0----0----0--0--0--|--3--3--3--3--3--3--3--3--|
-----0----0----0--x--x--|--0----0----0--0--0--|--0--0--0--0--0--0--0--0--|
-----0----0----0--x--x--|--0----0----0--0--0--|--------------------------|
------------------------|--2----2----2--2--2--|--------------------------|
------------------------|--2----2----2--2--2--|--------------------------|
------------------------|---------------------|--------------------------|


--3--3--3--3--3--3--3--3S--|--2--2--2--2--2--2--2--2--|--2--2--3----3----5--3--|
--0--0--0--0--0--0--0--0---|--0--0--0--0--0--0--0--0--|--0--0--0----0----0--0--|
---------------------------|--------------------------|------------------------|
---------------------------|--------------------------|------------------------|
---------------------------|--------------------------|------------------------|
---------------------------|--------------------------|------------------------|


--2--10----3----3--3--3--|--3--3--0----0----0--0--|--0--0--|-----|-----||
--0--------0----0--0--0--|--0--0--0----0----0--0--|--0--0--|-----|-----||
-------------------------|--------0----0----0--0--|--------|-----|-----||
-------------------------|------------------------|--------|-----|-----||
-------------------------|------------------------|--------|-----|-----||
-------------------------|------------------------|--------|-----|-----||
            
Submit corrections

comments powered by Disqus
↑ Back to top | Raein Tabs for Artmachine Observation Tower. Lyrics for acoustic guitar and electric guitar. 1 Tablatures and chords are parodies/interpretations of the original songs. You may use it for private study, scholarship, research or language learning purposes only