>
 >
Tonde Hi Ni Hairu Natsu No Kimi

Tonde Hi Ni Hairu Natsu No Kimi Bass Tabs

Radwimps - Tonde Hi Ni Hairu Natsu No Kimi chords, tabs, tablatures, lyrics

Guitar lessons | Add/correct | Request | Top 50 tabs Artists:  A B C D E F G H I J K L M N O P Q R S T U V W X Y Z 0-9

Tonde Hi Ni Hairu Natsu No Kimi Bass Tabs – Radwimps

CD, Sheet music, Poster

Do you like Tonde Hi Ni Hairu Natsu No Kimi? Share with your friends now
Bass Tabs
-------------------------------------------------------------------------------
-------------------------------------------------------------------------------



Tuning:Drop D (Drop the D) (In this tab, everything that looks like a 1 and a 0 
put together is not 1-0, its 10th fret) 

S = Slap 
P = Pop 

Intro (A, B, C, D, E...) Wait wait wait. 

Pre-chorus 1 (0:18) 
G|----------------|-------------------------|--------------| 
D|----------------|-------------------------|--------------| 
A|----11------331-|----11---00113-----11----|------11------| 
D|-00----3--22----|-00----3--------00----3--|---00----3----| 

Verse 1 (0:39) 

G|--5h7-5-7-|---------------------|--5h7-5-7-|-----------------| 
D|----------|---------------------|----------|-----------------| 
A|-5--------|-3h5-1--1h3-0-3h4h-5-|----------|-3h5-1--1h3/8----| 
D|----------|---------------------|-0--------|--------------10-| 

   S P  P P                         S P  P P 

G|--5h7-5-7-|---------------------|--5h7-5-7-|-7----------------------| 
D|----------|---------------------|----------|------------------------| 
A|-5--------|-3h5-1--1h3-0-3h4h-5-|----------|------------333333333---| 
D|----------|---------------------|-0--------|---333333333------------| 

   S P  P P                         S P  P P 

Chorus 1 (0:57) 

G|----------------------------------------------------------------------------------| 
D|----------------------------------------------------------------------------------| 
A|----------33333333-55555555-11111111-/-88888888-77777777-55555555-3333/10101010---| 
D|-33333333-------------------------------------------------------------------------| 

G|----------------------------------------------------------------------------------|
D|----------------------------------------------------------------------------------| 
A|----------33333333-55555555-11111111-/-88888-88-77777-77-55555-55-33--------------| 
D|-33333333----------------------------------10--------9--------7-------------------| 

Pre-verse 1 (1:14) 

G|------------------| 
D|------------------| 
A|------------------| X4 
D|-00-00---000000---| 

Verse 2 (1:23) 

G|-------------|---------------|--------------|-------------2---| 
D|-------3---3-|-2---2---0h2-0-|-----------3--|-2---2---0--0-32-| 
A|-5---5---3---|---3-----------|-5---5---3----|---3-------0-----| 
D|---7---------|-------2-------|---7---3------|-----------------|

G|-------------|---------------|--------------| 
D|-------3---3-|-2---2---0h2-0-|--------------| 
A|-5---5---3---|---3-----------|-5---5---3----| 
D|---7---------|-------2-------|---7---3------| 

Pre-chorus 2 (1:40) 

G|----------------|------------------------|
D|----------------|------------------------|
A|----11------331-|----11---000000-1111-33-|
D|-00----3--22----|-00----3----------------|

Chorus 2 (1:49) 

G|----------------------------------------------------------------------------------| 
D|----------------------------------------------------------------------------------| 
A|----------33333333-55555555-11111111-/-88888888-77777777-55555555-3333/10101010---| 
D|-33333333-------------------------------------------------------------------------| 

G|----------------------------------------------------------------------------------| 
D|----------------------------------------------------------------------------------| 
A|----------33333333-55555555-11111111-/-88888-88-77777-77-55555-55-3---------------| 
D|-33333333----------------------------------10--------9--------7-------------------|

 Bridge (Bass comes in at 2:22) 

G|------------|-----------|------------| 
D|------------|-----------|------------| 
A|----00-0000-|-----------|----00-0000-| 
D|-00---------|-----------|-00---------| 

Pre-chorus 3 (2:33) 

G|----------------|---------------| 
D|----------------|---------------| 
A|----11------331-|----11---00113-| 
D|-00----3--22----|-00----3------ | 

G|----------------|---------------| 
D|----------------|---------------| 
A|----11------331-|----11---00113-| 
D|-00----3--22----|-00----3------ | 

Outro 

G|------------|------------|----| 
D|------------|------------|----| 
A|----00-0000-|----00-0000-|----| 
D|-00---------|-00---------| -0-| 


 / slide up | 
\ slide down | 
h hammer-on | 
p pull-off | 
~ vibrato | 
+ harmonic | 
x Mute note ===============================================================================





Comments


Popular Radwimps tabs & chords
Hakujitsu Chords
Itoshi Chords
Keitai Denwa Chords
Me Me She Chords
Monomorai Chords
Ruru Chords
Bless Ukulele
Kyuuseishu Ukulele
Manifest Ukulele
Monomorai Ukulele


Song lyrics



↑ Back to top | Tablatures and chords are parodies/interpretations of the original songs. You may use it for private study, scholarship, research or language learning purposes only
© 2014 AZChords.com Contact us | Privacy policy | DMCA | Add/correct tabs | Request tabs | Top 50 tabs