» » »

Radio Moscow, No Good Woman Bass tabs (ver.1)

Artists:  A B C D E F G H I J K L M N O P Q R S T U V W X Y Z # 

No Good Woman Bass tabs (ver.1)

Radio Moscow Tabs
 Rating:
4/5 (4 votes)
No Good Woman lessons Tabs too difficult? Try these video lessons and learn fast
1
                Main riff:
g---------------------------------------------------------------------------|
d------2/-----2-5-2-----2/-----------------2/-----2-5-2-----2/--------------|
a---------------------------------------------------------------------------|
e--0-0----0-0-------0-0----0-2-3-4-5---0-0----0-0-------0-0----0-2-3-4-5----|

Verse:
g----------------------------------------------------|
d------------------2/-----2-5-2-----2/---------------|
a--0-0---0-0-----------------------------------------|
e--------------0-0----0-0-------0-0----0-2-3-4-5-----|

g--------------------------------------------------------------|
d----------------------------2/-----2-5-2-----2/---------------|
a--2-2---2-0-0---0---2-----------------------------------------|
e------------------3-----0-0----0-0-------0-0----0-2-3-4-5-----|

Chorus:
g----------------------------------------------------------------------------|
d----------------------------------------------------------------------------|
a----------------------------------------------------------------------------|
e12/---0-0-0-0---/12-10-8-6-5-3~---0-0-0-0---/12-10-8-6-5-3~---0-0-0-0---/12-|

Bridge: (after drum solo)
g--------------------------------------------------------------------|
d------------5~-------------7-5~-------------5~-------------7-5~-----|
a--5-6-7-7-7------5-6-7-7-7--------5-6-7-7-7------5-6-7-7-7----------|
e--------------------------------------------------------------------|
            
Submit corrections

comments powered by Disqus
↑ Back to top | Radio Moscow Bass for No Good Woman. Lyrics for acoustic guitar and electric guitar. 1 Tablatures and chords are parodies/interpretations of the original songs. You may use it for private study, scholarship, research or language learning purposes only