>
 >
Mistreating Queen

Mistreating Queen Guitar Tabs

Radio Moscow - Mistreating Queen chords, tabs, tablatures, lyrics

Guitar lessons | Add/correct | Request | Top 50 tabs Artists:  A B C D E F G H I J K L M N O P Q R S T U V W X Y Z 0-9

Mistreating Queen Guitar Tabs – Radio Moscow

CD, Sheet music, Poster

Do you like Mistreating Queen? Share with your friends now
Bass TabsTabs
                Mistreating Queen                 


                                      Radio Moscow
Guitar tab by Stevewizzle


   Bass plays these 4 measures alone
E||-------|-------|-------|-------|
B||-------|-------|-------|-------|
G||-------|-------|-------|-------|
D||-------|-------|-------|-------|
A||-------|-------|-------|-------|
E||-------|-------|-------|-------|


  E.  E   E.  Q       S S S E   E.  Q     
-------------------|---------------------|
-------------------|---------------------|
-------------------|---------------------|
-------------------|---------------------|
--9---9\-----------|--9-9-9-9\-----------|
--7---7\-----------|--7-7-7-7\-----------|


  E.  E   E.  Q       S S S S  S Q    E.  Q     
-------------------|---------------------------|
-------------------|---------------------------|
-------------------|-------------7----L---L----|
-------------------|-------------4----L---L----|
--9---9\-----------|--9-9-9-9~---5----L---L----|
--7---7\-----------|--7-7-7-7------------------|


  E  S  E  S E  S  E  S    E  S E  S E  S E  S  
------------------------|----------------------|
------------------------|----------------------|
------------------------|----------------------|
------------------------|--7--7-9--7-7--7-9--7-|
--9--9-11--9-9--9-11--9-|--5--5-5--5-5--5-5--5-|
--7--7--7--7-7--7--7--7-|----------------------|


  E  S E  S E  S S S S    E  S E  S E  S E  S  
-----------------------|----------------------|
-----------------------|----------------------|
-----------------------|----------------------|
-------7--x------------|-------7--------------|
------------5--x-------|----------x-5--x-7--L-|
--7--7-----------5-6-7-|--7--7-----------5--L-|


   E   S  E   S  E   S  E   S  
------------------------------|
------------------------------|
------------------------------|
------------------------------|
--12--12-14--12-12--12-14--12-|
--10--10-10--10-10--10-10--10-|


  E  S  E  S E  S E  S    E  S E  S E  S S S S  
-----------------------|-----------------------|
-----------------------|-----------------------|
-----------------------|-----------------------|
--9--9-11--9-7--7-9--7-|-------7--x------------|
--7--7--7--7-5--5-5--5-|------------5--x-------|
-----------------------|--7--7-----------5-6-7-|


  E  S E  S E  S E  S    H        E  E   
----------------------|-----------------|
----------------------|-----------------|
----------------------|--9--------9--8--|
-------7--------------|--8--------8--7--|
----------x-5--x-7--9-|--9--------9--8--|
--7--7-----------5--7-|-----------------|


  H.              E  S E  S E  S S S S  
---------------|-----------------------|
---------------|-----------------------|
--7------------|-----------------------|
--6------------|-------7--x------------|
--7------------|------------5--x-------|
---------------|--7--7-----------5-6-7-|


  H         T T  T  T E   
-------------------------|
-------------------------|
-------------------------|
--------------7h-9p-7-L--|
-------------------------|
--7~--------L------------|


  E  S  E  S E  S  E  S    E  S E  S E  S E  S  
------------------------|----------------------|
------------------------|----------------------|
------------------------|----------------------|
------------------------|--7--7-9--7-7--7-9--7-|
--9--9-11--9-9--9-11--9-|--5--5-5--5-5--5-5--5-|
--7--7--7--7-7--7--7--7-|----------------------|


  E  S E  S E  S S S S    E  S E  S E  S E  S  
-----------------------|----------------------|
-----------------------|----------------------|
-----------------------|----------------------|
-------7--x------------|-------7--------------|
------------5--x-------|----------x-5--x-7--L-|
--7--7-----------5-6-7-|--7--7-----------5--L-|


   E   S  E   S  E   S  E   S  
------------------------------|
------------------------------|
------------------------------|
------------------------------|
--12--12-14--12-12--12-14--12-|
--10--10-10--10-10--10-10--10-|


  E  S  E  S E  S E  S    E  S E  S E  S S S S  
-----------------------|-----------------------|
-----------------------|-----------------------|
-----------------------|-----------------------|
--9--9-11--9-7--7-9--7-|-------7--x------------|
--7--7--7--7-5--5-5--5-|------------5--x-------|
-----------------------|--7--7-----------5-6-7-|


  E  S E  S E  S E  S    H        E  E   
----------------------|-----------------|
----------------------|-----------------|
----------------------|--9--------9--8--|
-------7--------------|--8--------8--7--|
----------x-5--x-7--L-|--9--------9--8--|
--7--7-----------5--L-|-----------------|


  H.              E  S E  S E  S S S S  
---------------|-----------------------|
---------------|-----------------------|
--7------------|-----------------------|
--6------------|-------7--x------------|
--7------------|------------5--x-------|
---------------|--7--7-----------5-6-7-|


  H        T T T  T  E     E  S E  S E  S S S S  
------------------------|-----------------------|
------------------------|-----------------------|
------------------------|-----------------------|
-------------7-9p-7h-L--|-------7--x------------|
------------------------|------------5--x-------|
--7--------L------------|--7--7-----------5-6-7-|


  E  S E  S E  S S S S    E  S E  S E  S S S S  
-----------------------|-----------------------|
-----------------------|-----------------------|
-----------------------|-----------------------|
-------7--x------------|-------7--x------------|
------------5--x-------|------------5--x-------|
--7--7-----------5-6-7-|--7--7-----------5-6-7-|


  E  S E  S E  S S S S    E  S E  S E  S S S S  
-----------------------|-----------------------|
-----------------------|-----------------------|
-----------------------|-------7---------------|
-------7--x------------|----------x-5----------|
------------5--x-5-6-7-|--7--7---------x-5-6-7-|
--7--7-----------------|-----------------------|


  E  S E  S E  S S S S    E  S E  S E  S S S S  
-----------------------|-----------------------|
-----------------------|-----------------------|
-------7---------------|-----------------------|
----------x-5----------|-------7--x------------|
--7--7---------x-------|------------5--x-------|
-----------------5-6-7-|--7--7-----------5-6-7-|


  E  S E  S E  S S S S    E  S E  S E  S S S S  
-----------------------|-----------------------|
-----------------------|-----------------------|
-----------------------|-------9---------------|
-------7--x------------|----------x-7----------|
------------5--x-7-8-9-|--9--9---------x-5-6-7-|
--7--7-----------------|-----------------------|


  E  S E  S E  S S S S    E  S E  S E  S S S S  
-----------------------|-----------------------|
-----------------------|-----------------------|
-------7---------------|-----------------------|
----------x-5----------|-------7--x------------|
--7--7---------x-------|------------5--x-------|
-----------------5-6-7-|--7--7-----------5-6-7-|


  E  S E  S E  S E  S    E  S E  S E  S S S S  
----------------------|-----------------------|
----------------------|-----------------------|
----------------------|-----------------------|
----------------------|-------7--x------------|
----------------------|------------5--x-------|
--7--5-7--5-7--5-7--5-|--7--7-----------5-6-7-|


  E  S E  S E  S S S S    E  S E  S E  S S S S  
-----------------------|-----------------------|
-----------------------|-----------------------|
-----------------------|-----------------------|
-------7--x------------|-------7--x------------|
------------5--x-------|------------5--x-------|
--7--7-----------5-6-7-|--7--7-----------5-6-7-|


  E  S E  S E  S S S S    E  S E  S E  S S S S  
-----------------------|-----------------------|
-----------------------|-----------------------|
-----------------------|-------7---------------|
-------7--x------------|----------x-5----------|
------------5--x-5-6-7-|--7--7---------x-5-6-7-|
--7--7-----------------|-----------------------|


  E  S E  S E  S S S S    E  S E  S E  S S S S  
-----------------------|-----------------------|
-----------------------|-----------------------|
-------7---------------|-----------------------|
----------x-5----------|-------7--x------------|
--7--7---------x-------|------------5--x-------|
-----------------5-6-7-|--7--7-----------5-6-7-|


  E  S E  S E  S S S S    E  S E  S E  S S S S  
-----------------------|-----------------------|
-----------------------|-----------------------|
-----------------------|-------9---------------|
-------7--x------------|----------x-7----------|
------------5--x-7-8-9-|--9--9---------x-5-6-7-|
--7--7-----------------|-----------------------|


  E  S E  S E  S S S S    E  S E  S E  S E  S  
-----------------------|----------------------|
-----------------------|----------------------|
-------7---------------|----------------------|
----------x-5----------|-------7--x-----------|
--7--7---------x-------|------------5----9--7-|
-----------------5-6-7-|--7--7---------5-7--5-|


  E  S E  S E.  E.     E  S E  S E  S E  S  
--------------------|----------------------|
--------------------|----------------------|
--------------------|----------------------|
------------7-------|----------------------|
--4--4-7--7-5---7---|----------------------|
--2--2-5--5-----5---|--7--5-7--5-7--5-7--5-|


  E  S E  S E  S E.      E  S E  S E  S E  S  
----------------------|----------------------|
----------------------|----------------------|
----------------------|----------------------|
----------------------|----------------------|
-----------------5~---|----------------------|
--7--5-7--5-7--5------|--7--5-7--5-7--5-7--5-|


  E  S E  S E.  E.     E  S E  S E  S E  S  
--------------------|----------------------|
--------------------|----------------------|
--------------------|----------------------|
------------7-------|----------------------|
--4--4-7--7-5---7---|----------------------|
--2--2-5--5-----5---|--7--5-7--5-7--5-7--5-|


  E  S E  S E  S E.      E  S E  S E  S E  S  
----------------------|----------------------|
----------------------|----------------------|
----------------------|----------------------|
----------------------|----------------------|
-----------------5~---|----------------------|
--7--5-7--5-7--5------|--7--5-7--5-7--5-7--5-|


  E  S E  S E.  E.     E  S E  S E  S S S S  
--------------------|-----------------------|
--------------------|-----------------------|
--------------------|-----------------------|
------------7-------|-------7--x------------|
--4--4-7--7-5---7---|------------5--x-5-6-7-|
--2--2-5--5-----5---|--7--7-----------------|


  E  S E  S E  S E  S    E  S E  S E  S S S S  
----------------------|-----------------------|
----------------------|-----------------------|
-------7--7------9--9-|-----------------------|
----------------------|-------7--x------------|
--7--7------9--9------|------------5--x-------|
----------------------|--7--7-----------5-6-7-|


  Q     H           E.  E.   E  Q     
-----------------|-------------------|
-----------------|-------------------|
-----------------|-------------------|
-----------------|-------------------|
-----------------|--9---9\-----------|
--7\-------------|--7---7\-----------|


  S S S E.   E  Q       E.  E   E.  Q     
---------------------|-------------------|
---------------------|-------------------|
---------------------|-------------------|
---------------------|-------------------|
--9-9-9-9\-----------|--9---9\-----------|
--7-7-7-7\-----------|--7---7\-----------|


  S S S S  S Q    E.     E  S  E  S E  S  E  S  
----------------------|------------------------|
----------------------|------------------------|
-------------7----L---|------------------------|
-------------4----L---|------------------------|
--9-9-9-9~---5----L---|--9--9-11--9-9--9-11--9-|
--7-7-7-7-------------|--7--7--7--7-7--7--7--7-|


  E  S E  S E  S E  S    E  S E  S E  S S S S  
----------------------|-----------------------|
----------------------|-----------------------|
----------------------|-----------------------|
--7--7-9--7-7--7-9--7-|-------7--x------------|
--5--5-5--5-5--5-5--5-|------------5--x-------|
----------------------|--7--7-----------5-6-7-|


  E  S E  S E  S E  S  
----------------------|
----------------------|
----------------------|
-------7--------------|
----------x-5--x-7--L-|
--7--7-----------5--L-|


   E   S  E   S  E   S  E   S  
------------------------------|
------------------------------|
------------------------------|
------------------------------|
--12--12-14--12-12--12-14--12-|
--10--10-10--10-10--10-10--10-|


  E  S  E  S E  S E  S    E  S E  S E  S S S S  
-----------------------|-----------------------|
-----------------------|-----------------------|
-----------------------|-----------------------|
--9--9-11--9-7--7-9--7-|-------7--x------------|
--7--7--7--7-5--5-5--5-|------------5--x-------|
-----------------------|--7--7-----------5-6-7-|


  E  S E  S E  S E  S    H        E  E   
----------------------|-----------------|
----------------------|-----------------|
----------------------|--9--------9--8--|
-------7--------------|--8--------8--7--|
----------x-5--x-7--9-|--9--------9--8--|
--7--7-----------5--7-|-----------------|


  H.              E  S E  S E  S S S S  
---------------|-----------------------|
---------------|-----------------------|
--7------------|-----------------------|
--6------------|-------7--x------------|
--7------------|------------5--x-------|
---------------|--7--7-----------5-6-7-|


  H        T T  T  T E     E  S E  S E  S E  S  
------------------------|----------------------|
------------------------|----------------------|
------------------------|----------------------|
-------------7h-9p-7-L--|----------------------|
------------------------|----------------------|
--7--------L------------|--7--5-7--5-7--5-7--5-|


  E  S E  S E  S E.      E  S E  S E  S E  S  
----------------------|----------------------|
----------------------|----------------------|
----------------------|----------------------|
----------------------|----------------------|
-----------------5~---|----------------------|
--7--5-7--5-7--5------|--7--5-7--5-7--5-7--5-|


  E  S E  S E.  E.     E  S E  S E  S E  S  
--------------------|----------------------|
--------------------|----------------------|
--------------------|----------------------|
------------7-------|----------------------|
--4--4-7--7-5---7---|----------------------|
--2--2-5--5-----5---|--7--5-7--5-7--5-7--5-|


  E  S E  S E  S E.      E  S E  S E  S E  S  
----------------------|----------------------|
----------------------|----------------------|
----------------------|----------------------|
----------------------|----------------------|
-----------------5~---|----------------------|
--7--5-7--5-7--5------|--7--5-7--5-7--5-7--5-|


  E  S E  S E.  E.     E  S E  S E  S E  S  
--------------------|----------------------|
--------------------|----------------------|
--------------------|----------------------|
------------7-------|----------------------|
--4--4-7--7-5---7---|----------------------|
--2--2-5--5-----5---|--7--5-7--5-7--5-7--5-|


  E  S E  S E  S E.      E  S E  S E  S E  S  
----------------------|----------------------|
----------------------|----------------------|
----------------------|----------------------|
----------------------|----------------------|
-----------------5~---|----------------------|
--7--5-7--5-7--5------|--7--5-7--5-7--5-7--5-|


  E  S E  S E.  E.     E  S E  S E  S E  S  
--------------------|----------------------|
--------------------|----------------------|
--------------------|----------------------|
------------7-------|----------------------|
--4--4-7--7-5---7---|----------------------|
--2--2-5--5-----5---|--7--5-7--5-7--5-7--5-|


  E  S E  S E  S E.      E  S E  S E  S E  S  
----------------------|----------------------|
----------------------|----------------------|
----------------------|----------------------|
----------------------|----------------------|
-----------------5~---|----------------------|
--7--5-7--5-7--5------|--7--5-7--5-7--5-7--5-|


  E  E  E  E  E  E     H.             
--------------------|----------------|
--------------------|----------------|
--------------------|----------------|
-----------7--------|----------------|
--4--7--9--5--9--7--|--9~------------|
--2--5--7-----7--5--|--7~------------|


  H.                             
---------------|---------------||
---------------|---------------||
---------------|---------------||
---------------|---------------||
--L------------|---------------||
--L------------|---------------||




Duration Legend
---------------
W - whole
H - half
Q - quarter
E - 8th
S - 16th
T - 32nd
X - 64th
. - note dotted
|-n-|  - n-tuplets


Tablature Legend
----------------
L - tied note
x - dead note
g - grace note
(n) - ghost note
> - accentuded note
NH - natural harmonic
AH - artificial harmonic
TH - tapped harmonic
SH - semi harmonic
PH - pitch harmonic
h - hammer on
p - pull off
b - bend
br - bendRelease
pb - preBend
pbr - preBendRelease
brb - bendReleaseBend
\n/ - tremolo bar dip
\n - tremolo bar dive
-/n - tremolo bar Release up
/n\ - tremolo bar inverted dip
/n - tremolo bar return
-\n - tremolo bar Release down
S - shift slide
s - legato slide
/ -  slide into from below or out of upwards
\ -  slide into from above or out of downwards
~ - vibrato
W - wide vibrato
tr - trill
TP - tremolo picking
T - tapping
S - slap
P - pop
< - fade in
^ - brush up
v - brush down





Comments


Popular Radio Moscow tabs & chords
Mistreating Queen Bass Tabs
Timebomb Bass Tabs
250 Miles Tabs
Black Boot Tabs
Brain Cycles Tabs
Brain Cycles 1 Tabs
Creepin Tabs
Lick Skillet Tabs
Lucky Dutch 1 Tabs
Timebomb 1 Tabs


Song lyrics



↑ Back to top | Tablatures and chords are parodies/interpretations of the original songs. You may use it for private study, scholarship, research or language learning purposes only
© 2014 AZChords.com Contact us | Privacy policy | DMCA | Add/correct tabs | Request tabs | Top 50 tabs