» » »

Frustrating Sound Bass tabs (ver.1)

Artists:  A B C D E F G H I J K L M N O P Q R S T U V W X Y Z # 

Frustrating Sound Bass tabs (ver.1)

Radio Moscow
Rating:
5/5 (1 vote)

Hard to play? Try these video lessons and learn fast.
                Frustrating Sound by Radio Moscow

intro (main riff)

G||----------------------------|
D||----------------------------|
A||----------------4-----------|
E||6-66-66-66-6664---4---------|

verse

G||----------------------------|
D||----------------------------|
A||-------4--------------------|
E||6-66-66--46-46--------------|

end verse

G||----------------------------|--------------------------|
D||----------------------------|8-6-----------------------|
A||666644----------------------|---864-64-----------------|
E||------456---456---456---456-|---------6----------------|

G||----------------------------|--------------------------|
D||----------------------------|8-6-----------------------|
A||-----------4----------------|---864-64-----------------|
E||6-6666-6666-----------------|---------4----------------|

solo 2:08

G||----------------------------|-------------------------|
D||----------------------------|-------------------------|
A||-----------4--------------4-|8-8888--686--------------|
E||6-6666-6666----6-6666-6666--|-----------45------------|

G||----------------------------|-------------------------|
D||----------------------------|---86--------------------|
A||-----------4--------------4-|8----864-----6-----------|
E||6-6666-6666----6-6666-6666--|--------4-6--------------|

ending 2:41

G||----------------------------|-----------686-----------|
D||----------------------------|-----6---68--------------|
A||---4------------------------|-4--4-4-6----------------|
E||46---46-46------------------|6-6----------------------|
            
Hard to play? Try these video lessons and learn fast. | Correct




comments powered by Disqus
↑ Back to top | Tablatures and chords are parodies/interpretations of the original songs. You may use it for private study, scholarship, research or language learning purposes only