» » »

Black Boot Tabs (ver.1)

Artists:  A B C D E F G H I J K L M N O P Q R S T U V W X Y Z # 

Black Boot Tabs (ver.1)

Radio Moscow
Rating:
0/5 (0 votes)

Hard to play? Try these video lessons and learn fast.
                -----------------------------------------------------------------------------------
-----------------------------------------------------------------------------------

Parker uses a slide to play most of this song.
Listen to the song for the timing and the slides.

Tuning: Standard (EADGBE)
Key: Dm (Although the studio recording is slightly off-key)

e|----------------------------------------------------------------------------|
B|----------------------------------------------------------------------------|
G|--------/7-----------7-7---------/7-----------------------------------------|
D|-3p0----/7----3p0----------3p0---/7----3p0----0-0---------------------------|  x3
A|-----0-----0------0------0-----0-----0------0------0------------------------|
E|----------------------------------------------------------------------------|

e|--------------------------------------------------------10--10------------------|
B|-------------------------/6-6/8-----------------------10--10--10\8--------------|
G|-/5--5----------------/7-------7---/5-5-----/10-10-----------------10-10\7------|
D|-/5--5-0-3--3-0--3p0--/7-----------/5-5-0---/10-10-10--------------10-10\7------|
A|--------------------0---0-------0-----------------------------------------------|
E|--------------------------------------------------------------------------------|

e|--------------------------------------------------------------------------------|
B|-------------------------/6-6/8-------------------------------------------------|
G|-/5--5----------------/7-------7---/5-5-----/12-\10-----------------------------|
D|-/5--5-0-3--3-0--3p0--/7-----------/5-5-0---/12-\10-----------------------------|
A|--------------------0---0-------0-----------------------------------------------|
E|--------------------------------------------------------------------------------|

e|----------------------------------------------------------------------------|
B|----------------------------------------------------------------------------|
G|--------/7-----------7-7---------/7-----------------------------------------|
D|-3p0----/7----3p0----------3p0---/7----3p0----0-0---------------------------|  x2
A|-----0-----0------0------0-----0-----0------0------0------------------------|
E|----------------------------------------------------------------------------|

e|---------------------------------------------------/10-10-10-10-10\8------------|
B|-------------------------/6-6/8--------------------------------------8----------|
G|-/5--5----------------/7-------7---/5-5-----/10-10--------------------/10-/10-7-|
D|-/5--5-0-3--3-0--3p0--/7-----------/5-5-0---/10-10------------------------------|
A|--------------------0---0-------0-----------------------------------------------|
E|--------------------------------------------------------------------------------|

e|--------------------------------------------------------------------------------|
B|-------------------------/6-6/8-------------------------------------------------|
G|-/5--5----------------/7-------7---/5-5-----/12-/10-----------------------------|
D|-/5--5-0-3--3-0--3p0--/7-----------/5-5-0---/12-/10-----------------------------|
A|--------------------0---0-------0-----------------------------------------------|
E|--------------------------------------------------------------------------------|

e|---10-------10\8---8---8---10---10\8----------------------------------------|
B|-8/---10-10------8---8---8/---8/--------------------------------------------|
G|-------------------------------------/10-/10-7------------------------------|
D|----------------------------------------------------------------------------|  x2
A|----------------------------------------------------------------------------|
E|----------------------------------------------------------------------------|

e|---10----10----10---13----13----13---15----15-13----10-8------------------------|
B|-8/---10----10---10/---13----13---13/---13/-------8/----------------------------|
G|---------------------------------------------------------/10-7------------------|
D|--------------------------------------------------------------------------------|
A|--------------------------------------------------------------------------------|
E|--------------------------------------------------------------------------------|

e|---10-------10\8---8---8---10---10\8--------------/10---------------------------|
B|-8/---10-10------8---8---8/---8/------------------/10---------------------------|
G|-------------------------------------/10-/10-7--------/12-10-7------------------|
D|--------------------------------------------------------------------------------|
A|--------------------------------------------------------------------------------|
E|--------------------------------------------------------------------------------|

e|----------------------------------------------------------------------------|
B|----------------------------------------------------------------------------|
G|--------/7-----------7-7---------/7-----------------------------------------|
D|-3p0----/7----3p0----------3p0---/7----3p0----0-0---------------------------|  x2
A|-----0-----0------0------0-----0-----0------0------0------------------------|
E|----------------------------------------------------------------------------|

e|--------------------------------------------------------10--10------------------|
B|-------------------------/6-6/8-----------------------8/--8/--8-----------------|
G|-/5--5----------------/7-------7---/5-5-----/10-10---------------/10-/10-7------|
D|-/5--5-0-3--3-0--3p0--/7-----------/5-5-0---/10-10-10---------------------------|
A|--------------------0---0-------0-----------------------------------------------|
E|--------------------------------------------------------------------------------|

e|--------------------------------------------------------------------------------|
B|-------------------------/6-6/8-------------------------------------------------|
G|-/5--5----------------/7-------7---/5-5-----/12-\10--------3//7~--------7\------|
D|-/5--5-0-3--3-0--3p0--/7-----------/5-5-0---/12-\10--------3//7~--------7\------|
A|--------------------0---0-------0--------------------------3//7~----------------|
E|--------------------------------------------------------------------------------|

************************************

| /   slide up
| \   slide down
| p   pull-off
| ~   vibrato

************************************
            
Hard to play? Try these video lessons and learn fast. | Correct




comments powered by Disqus
↑ Back to top | Tablatures and chords are parodies/interpretations of the original songs. You may use it for private study, scholarship, research or language learning purposes only