» » »

Radiohead, You Tabs (ver.1)

Artists:  A B C D E F G H I J K L M N O P Q R S T U V W X Y Z # 

You Tabs (ver.1)

Radiohead Tabs
Rating:
0/5 (0 votes)
You lessons Tabs too difficult? Try these video lessons and learn fast
                Allright, i may have forgotten some parts of the music but i'm 100% sure this is the correct chords for this song
if i missed something feel free to correct or add, by the way try to play this song with the finger you use to express "cool"
 it sounds very melodic and try to softly pull the strings up and down so it sounds like arpegio 




It Has a padron, see if you can understand it....


Come on... Come oonnnnnn..                 ( 1st round)

e|-7-7---5-5---5-5---3-3---3-3---1-1---1-1---5-5----------
B|-8-8---5-5---6-6---3-3---4-4---1-1---3-3---6-6--------------
G|-9-9---6-6---7-7---4-4---5-5---2-2---3-3---7-7-----------------
D|-9-9---7-7---7-7---5-5---5-5---3-3---3-3---7-7--------------
A|-7-7---7-7---5-5---5-5---3-3---3-3---1-1---5-5--------------
E|-7-7---5-5---5-5---3-3---3-3---1-1---1-1---5-5----------

Come ooooooonnn come oooooonnn...   (2nd round)
e|-7-7---5-5---5-5---3-3---3-3---1-1---1-1---5-5----------
B|-8-8---5-5---6-6---3-3---4-4---1-1---3-3---6-6--------------
G|-9-9---6-6---7-7---4-4---5-5---2-2---3-3---7-7-----------------
D|-9-9---7-7---7-7---5-5---5-5---3-3---3-3---7-7--------------
A|-7-7---7-7---5-5---5-5---3-3---3-3---1-1---5-5--------------
E|-7-7---5-5---5-5---3-3---3-3---1-1---1-1---5-5----------


You and your...       .crawling

e|--1-1---1-1---1------5-5--------------------------------
B|--1-1---3-3-----3----6-6--------------------------------
G|--2-2---3-3-------3--7-7----------------------------------
D|--3-3---3-3----------7-7-------------------------------------
A|--3-3---1-1----------5-5-------------------------------------
E|0-1-1---1-1----------5-5------------------------------


Come oooooooooooooooonnn come oooooooooonnn...   (3nd round)
e|-7-7---5-5---5-5---3-3---3-3---1-1---1-1---5-5----------
B|-8-8---5-5---6-6---3-3---4-4---1-1---3-3---6-6--------------
G|-9-9---6-6---7-7---4-4---5-5---2-2---3-3---7-7-----------------
D|-9-9---7-7---7-7---5-5---5-5---3-3---3-3---7-7--------------
A|-7-7---7-7---5-5---5-5---3-3---3-3---1-1---5-5--------------
E|-7-7---5-5---5-5---3-3---3-3---1-1---1-1---5-5----------


Come oooooooooooooooooooooooooooo come ooooooooooooooooooonnn...  if you think... (4nd round)
e|-7-7---5-5---5-5---3-3---3-3---1-1---1-1---5-5----------
B|-8-8---5-5---6-6---3-3---4-4---1-1---3-3---6-6--------------
G|-9-9---6-6---7-7---4-4---5-5---2-2---3-3---7-7-----------------
D|-9-9---7-7---7-7---5-5---5-5---3-3---3-3---7-7--------------
A|-7-7---7-7---5-5---5-5---3-3---3-3---1-1---5-5--------------
E|-7-7---5-5---5-5---3-3---3-3---1-1---1-1---5-5----------

you can take us... allllll
e|--1-1---1-1---1------5-5--------------------------------
B|--1-1---3-3-----3----6-6--------------------------------
G|--2-2---3-3-------3--7-7----------------------------------
D|--3-3---3-3----------7-7-------------------------------------
A|--3-3---1-1----------5-5-------------------------------------
E|0-1-1---1-1----------5-5------------------------------



e|-3-3-------3-3--------------------------
B|-3-3--2-2--3-3--2-2------------------------
G|-3-3--2-2--3-3--2-2--------------------------
D|-x-x--2-2--x-x--2-2---------------------------
A|-x-x--x-x--x-x--x-x----------------------------
E|-x-x--x-x--x-x--x-x-------------------

you and whoose army....
e|--1----1------1---1----------
B|--3----3------3---3----------
G|--2-2--2-2--2-2-2-2-----------------
D|-0--------------------------
A|-----3-----1-----------------
E|-------------------


e|-3-3-------3-3--------------------------
B|-3-3--2-2--3-3--2-2------------------------
G|-3-3--2-2--3-3--2-2--------------------------
D|-x-x--2-2--x-x--2-2---------------------------
A|-x-x--x-x--x-x--x-x----------------------------
E|-x-x--x-x--x-x--x-x-------------------

you and your crawling...
e|--1----1------1---1----------
B|--3----3------3---3----------
G|--2-2--2-2--2-2-2-2-----------------
D|-0--------------------------
A|-----3-----1-----------------
E|-------------------

e|-3-3-------3-3--------------------------
B|-3-3--2-2--3-3--2-2------------------------
G|-3-3--2-2--3-3--2-2--------------------------
D|-x-x--2-2--x-x--2-2---------------------------
A|-x-x--x-x--x-x--x-x----------------------------
E|-x-x--x-x--x-x--x-x-------------------

you forget so easy....
e|----1-----1------1--1----------
B|----3-----3------3--3----------
G|--2-2-2-2-2-2--2-2--2-----------------
D|-0------------------0--------
A|-------3-----1-----------------
E|-------------------



e|-5-5-x-x-8--8--x-x-10-10-10-5-------------
B|-7-7-x-x-10-10-x-x-12-13-12-7------------
G|-7-7-x-x-10-10-x-x-12-12-12-7---------------
D|-7-7-x-x-10-10-x-x-12-12-12-7-----------------
A|-5-5-x-x-8--8--x-x-10-10-10-5----------------
E|-5-5-x-x-8--8--x-x-10-10-10-5------

Since This is my first tab it may have so errors or be a bit messy ;)
take care                            
Bruno Araújo Portugal
            

comments powered by Disqus
↑ Back to top | Radiohead Tabs for You. Lyrics for acoustic guitar and electric guitar. Tablatures and chords are parodies/interpretations of the original songs. You may use it for private study, scholarship, research or language learning purposes only