» » »

Radiohead, Wolf At Your Door Tabs (ver.1)

Artists:  A B C D E F G H I J K L M N O P Q R S T U V W X Y Z # 

Wolf At Your Door Tabs (ver.1)

Radiohead Tabs
 Rating:
4/5 (4 votes)
Wolf At Your Door lessons Tabs too difficult? Try these video lessons and learn fast
                “The Wolf At The Door” aka. (It Girl. Rag Doll) *thanks fandango8087 
By Radiohead
Standard Tuning
6
8

THIS TAB IS MAD UPDATED!!!!!!!!!!

I would like to thank all my correctors especially aeolus421 for making a <br>ridiculously awesome and updated tab for this song possible.  I may also tab the <br>strange ambient leads (is it an ondes martenot? is it a guitar? a keyboard? a <br>combination of these instruments?  I DON'T KNOW but will soon find out) so check back after a while.


Verse (Acoustic and Keyboard)
      Dm	       Dsus2           Gm6(Eb)    Gm(Ebmaj7)     Asus4        A7
---------6------------5-------------4---------3-----------3-------------2---|
-------7--7--------7---7----------3--3------3---3-------2---2----------2-2--|
-----7-----7-----7-------7------5-----5---5-------5---2-------2------2----2-|
---5----------5-------------------------------------0-----------------------|
----------------------------3-----------3-------------------------3----------|

After one repeat Ed comes in and Thom starts singing.

Half way through the verse they do a pick up in to the next repeat
-------------|
-------2-3 5-|
-----2------|
---2--------|
-----------|
-3-----------|

Chorus

D
I keep the wolf from the door but he calls me up
Bm7
Calls me on the phone tells me all the ways that he&#8217;s gonna mess me up
A
Steal all my children if I don&#8217;t pay the ransom
C#dim			       D
Never see them again if I squeal to the cops

Interlude

Dm	C	Bb	Am	A        2X

Dm	C	Bb	A

Verse 2 (octave effect on the electric guitar)

Chorus 2

Outro

		D	Bm7	G
And I say ooooh
            
Submit corrections

comments powered by Disqus
↑ Back to top | Radiohead Tabs for Wolf At Your Door. Lyrics for acoustic guitar and electric guitar. Tablatures and chords are parodies/interpretations of the original songs. You may use it for private study, scholarship, research or language learning purposes only