» » »

Radiohead, The Second Part Of Paranoid Android Tabs (ver.1)

Artists:  A B C D E F G H I J K L M N O P Q R S T U V W X Y Z # 

The Second Part Of Paranoid Android Tabs (ver.1)

Radiohead Tabs
 Rating:
4/5 (4 votes)
The Second Part Of Paranoid Android lessons Tabs too difficult? Try these video lessons and learn fast
                EVery tab I see for this song sounds weird for the part after the main riff, so heres my version...

e|-------------------------------------------------
B|-----7---9---7-------7---9---7-------------------
G|--8--------------8-------------------------------
D|-------------------------------------------------
A|-------------------------------------------------
E|-------------------------------------------------

e|-------------------------------------------------
B|-----7---9---7-------7---9---7-------------------
G|--7--------------7-------------------------------
D|-------------------------------------------------
A|-------------------------------------------------
E|-------------------------------------------------

e|-------------------------------------------------
B|-----7---9---7--------7---9---7------------------
G|--6--------------6-------------------------------
D|-------------------------------------------------
A|-------------------------------------------------
E|-------------------------------------------------

e|-------------------------------------------------
B|-----7---9---7-------7---9---7-------------------
G|--7--------------7-------------------------------
D|-------------------------------------------------
A|-------------------------------------------------
E|-------------------------------------------------

e|------------------------------------------------- x2
B|-----7---9---7--------7---9---7------------------
G|--6--------------6-------------------------------
D|-------------------------------------------------
A|-------------------------------------------------
E|-------------------------------------------------
            
Submit corrections

comments powered by Disqus
↑ Back to top | Radiohead Tabs for The Second Part Of Paranoid Android. Lyrics for acoustic guitar and electric guitar. Tablatures and chords are parodies/interpretations of the original songs. You may use it for private study, scholarship, research or language learning purposes only