» » »

Radiohead, Street Spirit (Fade Out) Bass tabs (ver.1)

Artists:  A B C D E F G H I J K L M N O P Q R S T U V W X Y Z # 

Street Spirit (Fade Out) Bass tabs (ver.1)

Radiohead Tabs
 Rating:
4/5 (4 votes)
Street Spirit (Fade Out) lessons Tabs too difficult? Try these video lessons and learn fast
                Play letters in the tabs like counting in hexadecimal. That is, an A in the tab 
means play the 10th fret, B=11th fret, C=12, and so on.

[INTRO]
  Am       Am       Am       Am       
G:--------|--------|--------|--------|
D:--------|--------|--------|--------|
A:--------|--------|--------|--------|
E:--------|--------|--------|--------|

[VERSE]
  Am              Am                        Am               Am
  Rows of houses   all bearing down on me   I can feel their  blue hands touching me
  Em                               Em                                    Am    Am
  All these things into position   All these things will one day swallow whole

  Am       Am       Am       Am       Em       Em       Am       Am
G:--------|--------|--------|--------|--------|--------|--------|--------|
D:--------|--------|--------|--------|--------|--------|--------|--------|
A:--------|--------|--------|--------|--------|--------|--------|--------|
E:--------|--------|--------|--------|--------|--------|--------|--------|

[CHORUS]
      C      Em     Am     Am       C       E
  And fade   Out   Again        And Fade    Out    

  C        Em       Am       Am       C        Em       
G:--------|--------|--------|--------|--------|--------|
D:--------|2-------|--------|--------|--------|--------|
A:3-------|--------|0-------|0-------|3-------|--------|
E:--------|--------|--------|--------|--------|0-------|

[VERSE]
  Am                Am                            Am                           Am   
  This machine will   Will not communicate  These thoughts and the strain I am under
  Em                                    Em                  Am        Am
  Be a world child  Form a circle     Before we all      Go under

  Am       Am       Am       Am       Em       Em       Am       Am
G:--------|--------|--------|--------|--------|--------|--------|--------|
D:--------|--------|--------|--------|--------|--------|--------|--------|
A:0-------|0-------|0-------|0-------|--------|--------|0-------|0-------|
E:--------|--------|--------|--------|0-------|0-------|--------|--------|

[CHORUS]
      C       Em      Am     Am         C      Em     Am     Am
  And fade    Out    Again          And fade   Out   Again 

  C        Em       Am       Am       C        Em       Am       Am
G:--------|--------|--------|--------|--------|--------|--------|----------------|
D:--------|2-------|--------|--------|--------|--------|--------|----------------|
A:3-------|--------|0-------|0-------|3-------|--------|0-------|0-------00000000|
E:--------|--------|--------|--------|--------|0-------|--------|----------------|
                                                        1 & 2 & 3 & 4 &

[INSTRUMENTAL]
  C           Em          Am          Am           C            Em
  Ahhhhh      Ahhhhh      Ahhhhhh                  Ahhhhhh      Ahhhhhhh 
   (Na na na    Na na na    Na na na    Na na na     Na na na    Na na na)

  C        Em       Am       Am       C        Em       
G:--------|--------|--------|--------|--------|--------|
D:--------|22222222|--------|--------|--------|22222222|
A:33333333|--------|00000000|00000000|33333333|--------|
E:--------|--------|--------|--------|--------|--------|

[VERSE]
  Am                      Am                             
  Cracked eggs dead birds   Scream as they fight for life
  Am                      Am
  I can feel death          can see its beady eyes
  Em                                Em                                    Am     Am
  All these things into position    All these things will one day swallow whole

  Am       Am       Am       Am       Em       Em       Am       Am
G:--------|--------|--------|--------|--------|--------|--------|----------------|
D:--------|--------|--------|--------|--------|--------|--------|----------------|
A:0-------|0-------|0-------|0-------|--------|--------|0-------|0-------00000000|
E:--------|--------|--------|--------|0-------|0-------|--------|----------------|
                                                                 1 & 2 & 3 & 4 &

[CHORUS]
      C       Em      Am     Am         C       Em      Am     Am
  And fade    Out    Again          And fade    Out    Again 

  C        Em       Am       Am       C        Em       Am       Am
G:--------|--------|--------|--------|--------|--------|--------|--------|
D:--------|22222222|--------|--------|--------|--------|--------|--------|
A:33333333|--------|00000000|00000000|33333333|--------|00000000|00000000|
E:--------|--------|--------|--------|--------|00000000|--------|--------|

[INSTRUMENTAL]
  C           Em          Am          Am           
  Ahhhhh      Ahhhhh      Ahhhhhh                  
   (Na na na    Na na na    Na na na    Na na na)

  C           Em          Am          Am           
  Ahhhhh      Ahhhhh      Ahhhhhh                  
   (Na na na    Na na na    Na na na    Na na na)

  C                Em               Am               Am               
G:----------------|----------------|----------------|----------------|
D:----------------|2-2-2-2-2-2-2-2-|----------------|----------------|
A:3-3-3-3-3-3-3-3-|----------------|0-0-0-0-0-0-0-0-|0-0-0-0-0-0-0-30|
E:----------------|----------------|-0-----0-0-----0|-0-----0-0------|
  1 & 2 & 3 & 4 &  1 & 2 & 3 & 4 &  1 & 2 & 3 & 4 &  1 & 2 & 3 & 4 &

  C                Em               Am               Am               
G:----------------|----------------|----------------|----------------|
D:----------------|2-2-2-2-2-2-2-2-|----------------|----------------|
A:3-3-3-3-3-3-3-3-|-------2--------|0-0-0-0-0-0-0---|0-0-0-0-0-0-0-0-|
E:-------3--------|----------------|-------0------0-|-------0--------|
  1 & 2 & 3 & 4 &  1 & 2 & 3 & 4 &  1 & 2 & 3 & 4 &  1 & 2 & 3 & 4 &

[CODA]
    C/G        Em      Am      Am        C/G        Em      Am      Am
  Immerse your soul in love            Immerse your soul in love

  C/G      Em       Am       Am       C/G      Em       Am       Am
G:--------|--------|--------|--------|--------|--------|--------|--------|
D:--------|--------|--------|--------|--------|--------|--------|--------|
A:--------|--------|--------|--------|--------|--------|--------|--------|
E:33333333/CCCCCCCC\55555555|55555555\33333333/CCCCCCCC\5~~~~~~~~~~~~~~~~|


March 23, 2012
            
Submit corrections

comments powered by Disqus
↑ Back to top | Radiohead Bass for Street Spirit (Fade Out). Lyrics for acoustic guitar and electric guitar. Tablatures and chords are parodies/interpretations of the original songs. You may use it for private study, scholarship, research or language learning purposes only