>
 >
Street Spirit (Fade Out)

Street Spirit (Fade Out) Guitar Tabs

Radiohead - Street Spirit (Fade Out) chords, tabs, tablatures, lyrics

Guitar lessons | Add/correct | Request | Top 50 tabs Artists:  A B C D E F G H I J K L M N O P Q R S T U V W X Y Z 0-9

Street Spirit (Fade Out) Guitar Tabs – Radiohead

CD, Sheet music, Poster

Do you like Street Spirit (Fade Out)? Share with your friends now
Tabs
Tuning: EADGBe


Am   (Fret this,picking pattern) 
e----------------0----------0-----------0------------- 
B-(1)(3)--------------3----------1------------0-------
G----(2)------------2-----2---2----2---2----2---2---2- x4
D----(2)-------2----------------------------------2---
A---------0-------------------------------------------
E-----------------------------------------------------

 Em    
e----------------0-------0--------0------------------ 
B-(1)(3)-------------3--------1--------0-------------
G------------------0---0---0----0---0----0---0-------x2
D----(2)-----------------------------------2---------
A----(2)-------2-------------------------------------
E----------0-----------------------------------------

Part of C
e----------------0-----------0----------0--------------- 
B-(1)(3)----------------3----------1-----------0--------
G-------------------0------0----0-----0----0------0---0-x1
D----(2)-----2--------------------------------------2---
A----(3)---3--------------------------------------------
E-------------------------------------------------------

Am x4
Em x2
C  x1
Em x1





Comments


Popular Radiohead tabs & chords
Feral Bass Tabs
Creep 4 Chords
The Tourist Chords
Knives Out 1 Tabs
Let Down. Lead Bits Tabs
My Iron Face Tabs
Paranoid Android 1 Tabs
Paranoid Android 3 Tabs
Sail To The Moon 2 Tabs
Knives Out Ukulele


Song lyrics



↑ Back to top | Tablatures and chords are parodies/interpretations of the original songs. You may use it for private study, scholarship, research or language learning purposes only
© 2014 AZChords.com Contact us | Privacy policy | DMCA | Add/correct tabs | Request tabs | Top 50 tabs