>
 >
Separator

Separator Bass Tabs

Radiohead - Separator chords, tabs, tablatures, lyrics

Guitar lessons | Add/correct | Request | Top 50 tabs Artists:  A B C D E F G H I J K L M N O P Q R S T U V W X Y Z 0-9

Separator Bass Tabs – Radiohead

CD, Sheet music, Poster

Do you like Separator? Share with your friends now
Bass TabsChordsChords v2Chords v3
This is the whole song, including variations - Colin doesn't keep the bassline static 
and throws in fills and altered timings here and there.

                                         "Feels like I've fallen..."
G-------------------|-------------------|-------------------------|
D-------------------|-------------------|---------------------10--|
A-------------------|-------------------|--------------6g8--------|
E-------------------|-------------------|-------------------------|


  E  Q.     E  Q    E     H        E  S  E.   E     E  Q.     E.  E.  E
-----------------------|-------------------------|-----------------------|
--8--------------------|---------------------10--|--8--------------------|
-----8---------6----8--|--8-----------6h-8-------|-----8------8---8---8--|
-----------------------|-------------------------|-----------------------|


  H        E  S  E.   E     E  H          E.  E.     H        E  S  E.   E
-------------------------|------------------------|-------------------------|
---------------------10--|--8---------------------|---------------------10--|
--8-----------6h-8-------|-----8--------6g8---8---|--8-----------6h-8-------|
-------------------------|------------------------|-------------------------|


  E  Q.     E.  E.  E     H        S S  Q     E     E  H          E.  E.
-----------------------|-------------------------|------------------------|
--8--------------------|---------------------10--|--8---------------------|
-----8------8---8---8--|--8----------6h-8--------|-----8--------6g8---8---|
-----------------------|-------------------------|------------------------|


  H        S S  Q     E     E  Q.     E.  E.  E     H.           E   E
-------------------------|-----------------------|----------------------|
---------------------10--|--8--------------------|------------------10--|
--8----------6h-8--------|-----8------8----------|---------------8------|
-------------------------|----------------8---8--|--6-------------------|


  E  Q.     E.  E.  E     H        S S  Q     E     E  Q.     S E  E.  E
-----------------------|-------------------------|------------------------|
--8--------------------|---------------------10--|--8---------------------|
-----8------8---8---8--|--8----------6h-8--------|-----8------8-8--8---8--|
-----------------------|-------------------------|------------------------|


  H        S S  Q     E     E  Q.     E.  E.  E      W
-------------------------|-----------------------|--------------------|
---------------------10--|--8--------------------|--------------------|
--8----------6h-8--------|-----8------8---8---8--|--11----------------|
-------------------------|-----------------------|--------------------|


  W                   H        E    Q     E     E  Q.     E.  E.  E
-------------------|-------------------------|-----------------------|
-------------------|---------------------10--|--8--------------------|
-------------------|--------------6g8--------|-----8------8---8---8--|
--8----------------|--6----------------------|-----------------------|


   W                   W                   H        E  S  E.   E
--------------------|-------------------|-------------------------|
--------------------|-------------------|---------------------10--|
--11----------------|-------------------|--------------6h-8-------|
--------------------|--8----------------|--6----------------------|


  E  Q.     E  E  E  E     H        E    E   E   E     E  Q.     E.  E.  E
------------------------|---------------------------|-----------------------|
--8---------------------|-------------------10--10--|--8--------------------|
-----8------------8-----|--------------6g8----------|-----8------8---8---8--|
---------------6-----8--|--6------------------------|-----------------------|


  H        E  S  E.   E     E  Q.     E.  E.  E     H        E  S  E.   E
-------------------------|-----------------------|-------------------------|
---------------------10--|--8--------------------|---------------------10--|
--8-----------6h-8-------|-----8------8---8---8--|--8-----------6h-8-------|
-------------------------|-----------------------|-------------------------|


  E  Q.     E.  E.  E     H        E  E  E   E     E  Q.     S  E  E.  E
-----------------------|------------------------|-------------------------|
--8--------------------|--------------------10--|--8----------------------|
-----8------8---8---8--|--------------6--8------|-----8------6h-8--8---8--|
-----------------------|--6---------------------|-------------------------|


  H        E  S  E.   E     E  Q.     Q    Q       H        E  E   E  S S
-------------------------|----------------------|-------------------------|
---------------------10--|--8-------------------|-----------------10----8-|
--8-----------6h-8-------|-----8------8---------|-------------------------|
-------------------------|-----------------8----|--6-----------6------6---|


  E  Q.     Q    Q       H        E  S E.   E     E  Q.     E.  E.  E
----------------------|------------------------|-----------------------|
----------------------|----------------8---10--|--8---------8----------|
-----8------8---------|------------------------|-----8----------8------|
-----------------8----|--6-----------6---------|--------------------8--|


  H        E  S E.   E     E  Q.     S  E  E.  E      W
------------------------|-------------------------|--------------------|
--------------------10--|--8----------------------|--------------------|
--------------6-8-------|-----8------6h-8--8---8--|--11----------------|
--6---------------------|-------------------------|--------------------|


  W                   H        E  E  E   E     E  Q    E  E  S E  S E
-------------------|------------------------|--------------------------|
-------------------|--------------------10--|--8----------8----8----8--|
-------------------|--------------6--8------|-----8----8-----8----8----|
--8----------------|--6---------------------|--------------------------|


   H        E      E.  E.     H        E  S E.  E     H        E    Q     E
---------------------------|-----------------------|-------------------------|
---------------------------|-----------------------|---------------------10--|
--11-----------10g11---8---|-----------------------|--------------6g8--------|
---------------------------|--8--------8--6-8---6--|-------------------------|


  E  E  E  E  E.  E.  E     E  Q    E  E.  E.   E     E  Q.     E.  E.  E
-------------------------|-------------------------|-----------------------|
--8--8--8-----8----------|---------------------10--|--8--8------8----------|
-----------8------8------|-----------------8-------|----------------8------|
----------------------8--|--6--6-------6-----------|--------------------8--|


  E  E  H.              W                   W
---------------------|-------------------|-------------------|-------|
---------------------|-------------------|-------------------|-------|
---------------------|-------------------|-------------------|-------|
--6--6---------------|-------------------|-------------------|-------|


  W                   W                   W                   W
-------------------|-------------------|-------------------|-------------------|
--8----------------|-------------------|-------------------|-------------------|
-------------------|-------------------|--8----------------|-------------------|
-------------------|-------------------|-------------------|-------------------|


  W                   W                   W                   W
-------------------|-------------------|-------------------|-------------------|
--8----------------|-------------------|-------------------|-------------------|
-------------------|-------------------|--8----------------|-------------------|
-------------------|-------------------|-------------------|-------------------|


  H.           E  E     W                    W
---------------------|-------------------|--------------------|
--8---------------8--|-------------------|--------------------|
---------------------|-------------------|--11----------------|
---------------------|-------------------|--------------------|


  W                   W                   W                   W
-------------------|-------------------|-------------------|-------------------|
-------------------|--8----------------|-------------------|-------------------|
-------------------|-------------------|-------------------|--8----------------|
-------------------|-------------------|-------------------|-------------------|


  W                   W                   W                   W
-------------------|-------------------|-------------------|-------------------|
-------------------|--8----------------|-------------------|-------------------|
-------------------|-------------------|-------------------|--8----------------|
-------------------|-------------------|-------------------|-------------------|


  W                   H        E  S S E   E     E  H        S E  S E
-------------------|-------------------------|------------------------|
-------------------|--8------------------10--|--8--8----------8----8--|
-------------------|--------------6-6-8------|--------------8----8----|
-------------------|-------------------------|------------------------|


   W                   E  H        S E  S E     H        E  E  E   E
--------------------|------------------------|------------------------|
--------------------|----------------8----8--|--8-----------------10--|
--11----------------|--6-----------8----8----|--------------6--8------|
--------------------|------------------------|------------------------|


  E  Q.     E  S E  S E      H.           S S S S    H        E  E  S E.
-------------------------|------------------------|-----------------------|
--8--8------8----8----8--|--------------------8---|-----------------------|
---------------8----8----|--11--------------8-----|--6-----------6----6---|
-------------------------|------------------------|-----------------------|


  H        E    E  E   E     E  Q    S E.  E  E  E      W
--------------------------|------------7------------|--------------------|
--8-------------------10--|--8--8----8-----8--------|--------------------|
--------------6g8--8------|-------------------8-----|--11----------------|
--------------------------|----------------------6--|--------------------|


  W                   H        E    E  E   E     E  Q.     E  S E  S E
-------------------|--------------------------|-------------------------|
-------------------|--8-------------------10--|--8--8------8----8----8--|
--6----------------|--------------6g8--8------|---------------8----8----|
-------------------|--------------------------|-------------------------|


   W                   W                   W
--------------------|-------------------|-------------------|
--------------------|-------------------|--8----------------|
--11----------------|-------------------|-------------------|
--------------------|--8----------------|-------------------|


  W                   W                   W                   W
-------------------|-------------------|-------------------|-------------------|
-------------------|-------------------|-------------------|-------------------|
-------------------|-------------------|-------------------|-------------------|
-------------------|-------------------|-------------------|--6----------------|


  W                   W                   W
-------------------|-------------------|-------------------|
-------------------|-------------------|-------------------|
-------------------|-------------------|-------------------|
-------------------|--1----------------|-------------------|


  H.           E  E     W                   W
---------------------|-------------------|-------------------|
---------------------|-------------------|-------------------|
---------------------|-------------------|-------------------|
--6---------------6--|-------------------|--1----------------|


  W                   W                   W                   W
-------------------|-------------------|-------------------|-------------------|
-------------------|-------------------|-------------------|-------------------|
-------------------|-------------------|-------------------|-------------------|
-------------------|--6----------------|-------------------|--1----------------|


  W                   W                   W                   W
-------------------|-------------------|-------------------|-------------------|
-------------------|-------------------|-------------------|-------------------|
-------------------|-------------------|-------------------|-------------------|
-------------------|--6----------------|-------------------|--1----------------|


  W                   W                   W                   W
-------------------|-------------------|-------------------|-------------------|
-------------------|-------------------|-------------------|-------------------|
-------------------|-------------------|-------------------|-------------------|
-------------------|--6----------------|-------------------|--1----------------|


  W                   H.           E  E     W
-------------------|---------------------|-------------------|
-------------------|---------------------|-------------------|
-------------------|---------------------|-------------------|
-------------------|--6---------------6--|-------------------|


  W                   W                   W                   W
-------------------|-------------------|-------------------|-------------------|
-------------------|-------------------|-------------------|-------------------|
-------------------|-------------------|-------------------|-------------------|
--1----------------|-------------------|--6----------------|-------------------|


  W                   W                   W                   W
-------------------|-------------------|-------------------|-------------------|
-------------------|-------------------|-------------------|-------------------|
-------------------|-------------------|-------------------|-------------------|
--1----------------|-------------------|-------------------|-------------------|





Comments


Popular Radiohead tabs & chords
High And Dry 3 Bass Tabs
Like Spinning Plates Bass Tabs
High And Dry 1 Chords
House Of Cards 1 Chords
Million Dollar Question Chords
Palo Alto Chords
Black Star Drum Tabs
Creep 4 Tabs
Paranoid Android 2 Tabs
Romeo And Juliet Tabs


Song lyrics



↑ Back to top | Tablatures and chords are parodies/interpretations of the original songs. You may use it for private study, scholarship, research or language learning purposes only
© 2014 AZChords.com Contact us | Privacy policy | DMCA | Add/correct tabs | Request tabs | Top 50 tabs