» » »

Radiohead, Sail To The Moon Tabs (ver.4)

Artists:  A B C D E F G H I J K L M N O P Q R S T U V W X Y Z # 

Sail To The Moon Tabs (ver.4)

Radiohead Tabs
 Rating:
4/5 (4 votes)
Sail To The Moon lessons Tabs too difficult? Try these video lessons and learn fast
1
                INTRO:

      (A maj7no5)                 (C ish)            (Fmaj7)
e|---------------------------------------------------------------------------|
B|---------------------------------------------------------------------------|
G|--13--13--13--13------------14----13---12--------------8--8--8-8-8---------|
D|--11--11--11--11----11--------------11-----15-14-------9--9--9-9-9---------|
A|--12--12--12--12--12---12------12----------------15/7--7--7--7-7-7---------|
E|------0---0---0~-----------------------------------------------------------|
Lather rinse repeat

First verse thingy
      (A maj7)    (A)    (A add 9)
e|----------------------------------------------------------------------------|
B|----------------------------------------------------------------------------|
G|----------13-----14----16---------------------------------------------------|
D|------14--14-----14----14--12---14--12--14-15--14-12-----12h14--------------|
A|--12*---------12-----12-------------------------------15~-------(12---------|repeat)
E|----------------------------------------------------------------------------|


Weird thingy that I've never heard anybody play on guitar

(Yorke goes   STAAAAAAAAAAAAAAAAAAAAAAAAAAAAAAAAAAAAAAAAARRRRRRRRRRRSSS)

e|----------------------------------------------------------------------------|
B|----------------------------------------------------------------------------|
G|----------------------------------------------------------------------------|
D|--11-*13-13-11-11-13-14-16-16-14-10-12-12-10-10h12p10-9h10p9----------------|
A|------------------------------------------------------------12-10-11*-------|
E|----------------------------------------------------------------------------|

(*repeat to this note)

Then there's 2 guitar fills I've identified that get played with some frequency
twards then end of the song, but I'm not listening to the CD


e|---------------------------------------------------------------------------|
B|-----8---8---8---8----8----8---8---8---10---10--10-------------------------|
G|--10--10--10---10---11--11--11--11---12--12--------------------------------|
D|---------------------------------------------------------------------------|
A|---------------------------------------------------------------------------|
E|---------------------------------------------------------------------------|

And another little one

e|---------------------------------------------------------------------------|
B|---------------------------------------------------------------------------|
G|---------------------------------------------------------------------------|
D|---------------------------------------------------------------------------|
A|--12--10--9--10------------------------------------------------------------|
E|---------------------------------------------------------------------------|


Outro
   This is easy to play on piano, but weird on guitar  (I may start on the wrong note, 
if I do, find the right 2, and they should work out if you just add or subtract the 
on the tab)

Just strum these thirds in rythm with the song, i don't want to tab out the individuals


e|-----------------3----7---11---15---19---23--------------------------------|
B|------------4----4----8---12---16---20---24--------------------------------|
G|------4-----4--------------------------------------------------------------|
D|--5---5--------------------------------------------------------------------|
A|--6------------------------------------------------------------------------|
E|---------------------------------------------------------------------------|

There you go, I think it needs some technical improvement, but that's a start at least
            
Submit corrections

comments powered by Disqus
↑ Back to top | Radiohead Tabs for Sail To The Moon. Lyrics for acoustic guitar and electric guitar. 1 Tablatures and chords are parodies/interpretations of the original songs. You may use it for private study, scholarship, research or language learning purposes only