» » »

Radiohead, Reckoner Tabs (ver.2)

Artists:  A B C D E F G H I J K L M N O P Q R S T U V W X Y Z # 

Reckoner Tabs (ver.2)

Radiohead Tabs
 Rating:
4/5 (4 votes)
Reckoner lessons Tabs too difficult? Try these video lessons and learn fast
                --------------------
Reckoner - Radiohead
--------------------

Tuning:Standard

READ!!!!!!!!!!!!!!!!!
CHORDS LISTED AT BOTTOM


Chord Riffs:

  C
e|--------------------------|
B|----------------------(10)|
G|---9----9----9----9-----9-|
D|--------------------------|
A|--------------------------|
E|-8----8----8----8----8----|

  Em
e|------------------------------------|
B|------------------------------------|
G|----12-----12-----12-----12------12-|
D|------------------------------------|
A|------------------------------------|
E|-12-----12-----12-----12-----12-----|

  D
e|------------------------------------|
B|------------------------------------|
G|----11-----11-----11(b)--11------11-|
D|------------------------------------|
A|------------------------------------|
E|-10-----10-----10-----10-----10-----|

  A (Used once)
e|--------------------------|
B|--------------------------|
G|---9----9----9----9-----9-|
D|--------------------------|
A|-0----0----0----0----0----|
E|--------------------------|

INTRO: Guitar starts at 0:09

C Em D C Em D C Em C Em D C Em C

VERSE:

Em    D    C    Em   C
Reckoner   ohh  ohh

    Em            D    C      Em    C 
You can't take it with you

Em      D          C  Em   C
Dancing for your pleasure

BRIDGE:

Em D A C

VERSE II:

Em      D      C     Em     C
You are not to blame for

Em    D          C  Em  C
Bittersweet distractors

Em       D         C Em  C
Dare not speak his name

Em   D         C   Em   C   Em
Dedicate it to all you all human

D  C
beings

CHORUS:

(G#madd13-)  G6  <--- the guitar actually plays 3xxx5x

Am         C7M  B
Because we separate like ripples on the 

C7M    Am    B
blaaaaaaaank shore

G#madd13-  G6

Am         C7M  B
Because we separate like ripples on the 

C7M    Am    B
blaaaaaaaank shore  oohhooohhohoo

VERSE III:

Em  D    C             Em   C   
Reckoner aaaaooooohhhhh

Em      D    C   Em   C
Take me with you

Em   D         C   Em   C   Em
Dedicate it to all you all human

D  C
beings

OUTRO: Not exact but you can mix it up

  Em7                              C7M
e|-----------------------------------------------------------------|
B|-----------------------------------------------------------------|
G|-7-7-x---7-7-x---7-7-x---7-7-x---7-7-x-7-7-7-x-7-7-7-x-7-7-7-x-7-|
D|-7-5-x-5-7-5-x-5-7-5-x-5-7-5-x-5-7-9-x-9-7-9-x-9-7-9-x-9-7-9-x-9-|
A|-------7-------7-------7-------7-7-7-x-7-7-7-x-7-7-7-x-7-7-7-x-7-|
E|---------------------------------8-8-x-8-8-8-x-8-8-8-x-8-8-8-x-8-|


CHORDS:

C x32010 (8xx9xx)

Em 022000 (12xx12xx)

D xx0232 (10xx11xx)

A x02220 (x0x9xxx)

G#madd13- 466400

G6  355400

Am  x12109xx

C7M (8)1099xx

B 7998xx

Em7 075700

C7M 8797xx
            
Submit corrections

comments powered by Disqus
↑ Back to top | Radiohead Tabs for Reckoner. Lyrics for acoustic guitar and electric guitar. Tablatures and chords are parodies/interpretations of the original songs. You may use it for private study, scholarship, research or language learning purposes only